  0
SECTION
  2
HEADER
  9
$ACADVER
  1
AC1015
  9
$ACADMAINTVER
 70
    20
  9
$DWGCODEPAGE
  3
ANSI_932
  9
$INSBASE
 10
0.0
 20
0.0
 30
0.0
  9
$EXTMIN
 10
-620.0439419597901
 20
-936.2526041164437
 30
-0.0015258207003583
  9
$EXTMAX
 10
820.0439486653122
 20
1204.787911056068
 30
0.0000000349246037
  9
$LIMMIN
 10
0.0
 20
0.0
  9
$LIMMAX
 10
0.0
 20
0.0
  9
$ORTHOMODE
 70
     0
  9
$REGENMODE
 70
     1
  9
$FILLMODE
 70
     1
  9
$QTEXTMODE
 70
     0
  9
$MIRRTEXT
 70
     1
  9
$LTSCALE
 40
40.64
  9
$ATTMODE
 70
     1
  9
$TEXTSIZE
 40
0.0
  9
$TRACEWID
 40
1.0
  9
$TEXTSTYLE
  7
STANDARD
  9
$CLAYER
  8
DATA
  9
$CELTYPE
  6
ByLayer
  9
$CECOLOR
 62
   256
  9
$CELTSCALE
 40
1.0
  9
$DISPSILH
 70
     0
  9
$DIMSCALE
 40
1.0
  9
$DIMASZ
 40
0.18
  9
$DIMEXO
 40
0.0625
  9
$DIMDLI
 40
0.38
  9
$DIMRND
 40
0.0
  9
$DIMDLE
 40
0.0
  9
$DIMEXE
 40
0.18
  9
$DIMTP
 40
0.0
  9
$DIMTM
 40
0.0
  9
$DIMTXT
 40
0.18
  9
$DIMCEN
 40
0.09
  9
$DIMTSZ
 40
0.0
  9
$DIMTOL
 70
     0
  9
$DIMLIM
 70
     0
  9
$DIMTIH
 70
     1
  9
$DIMTOH
 70
     1
  9
$DIMSE1
 70
     0
  9
$DIMSE2
 70
     0
  9
$DIMTAD
 70
     0
  9
$DIMZIN
 70
     0
  9
$DIMBLK
  1

  9
$DIMASO
 70
     1
  9
$DIMSHO
 70
     1
  9
$DIMPOST
  1

  9
$DIMAPOST
  1

  9
$DIMALT
 70
     0
  9
$DIMALTD
 70
     2
  9
$DIMALTF
 40
25.4
  9
$DIMLFAC
 40
1.0
  9
$DIMTOFL
 70
     0
  9
$DIMTVP
 40
0.0
  9
$DIMTIX
 70
     0
  9
$DIMSOXD
 70
     0
  9
$DIMSAH
 70
     0
  9
$DIMBLK1
  1

  9
$DIMBLK2
  1

  9
$DIMSTYLE
  2
STANDARD
  9
$DIMCLRD
 70
     0
  9
$DIMCLRE
 70
     0
  9
$DIMCLRT
 70
     0
  9
$DIMTFAC
 40
1.0
  9
$DIMGAP
 40
0.09
  9
$DIMJUST
 70
     0
  9
$DIMSD1
 70
     0
  9
$DIMSD2
 70
     0
  9
$DIMTOLJ
 70
     1
  9
$DIMTZIN
 70
     0
  9
$DIMALTZ
 70
     0
  9
$DIMALTTZ
 70
     0
  9
$DIMUPT
 70
     0
  9
$DIMDEC
 70
     4
  9
$DIMTDEC
 70
     4
  9
$DIMALTU
 70
     2
  9
$DIMALTTD
 70
     2
  9
$DIMTXSTY
  7
STANDARD
  9
$DIMAUNIT
 70
     0
  9
$DIMADEC
 70
     0
  9
$DIMALTRND
 40
0.0
  9
$DIMAZIN
 70
     0
  9
$DIMDSEP
 70
    46
  9
$DIMATFIT
 70
     3
  9
$DIMFRAC
 70
     0
  9
$DIMLDRBLK
  1

  9
$DIMLUNIT
 70
     2
  9
$DIMLWD
 70
    -2
  9
$DIMLWE
 70
    -2
  9
$DIMTMOVE
 70
     0
  9
$LUNITS
 70
     2
  9
$LUPREC
 70
     4
  9
$SKETCHINC
 40
0.1
  9
$FILLETRAD
 40
0.0
  9
$AUNITS
 70
     0
  9
$AUPREC
 70
     0
  9
$MENU
  1
acad
  9
$ELEVATION
 40
0.0
  9
$PELEVATION
 40
0.0
  9
$THICKNESS
 40
0.0
  9
$LIMCHECK
 70
     0
  9
$CHAMFERA
 40
0.0
  9
$CHAMFERB
 40
0.0
  9
$CHAMFERC
 40
0.0
  9
$CHAMFERD
 40
0.0
  9
$SKPOLY
 70
     0
  9
$TDCREATE
 40
2457823.498252315
  9
$TDUCREATE
 40
2457823.123252315
  9
$TDUPDATE
 40
2457823.549548611
  9
$TDUUPDATE
 40
2457823.174548611
  9
$TDINDWG
 40
0.0002777778
  9
$TDUSRTIMER
 40
0.0002777778
  9
$USRTIMER
 70
     1
  9
$ANGBASE
 50
0.0
  9
$ANGDIR
 70
     0
  9
$PDMODE
 70
     1
  9
$PDSIZE
 40
-2.0
  9
$PLINEWID
 40
0.0
  9
$SPLFRAME
 70
     0
  9
$SPLINETYPE
 70
     6
  9
$SPLINESEGS
 70
     8
  9
$HANDSEED
  5
416
  9
$SURFTAB1
 70
     6
  9
$SURFTAB2
 70
     6
  9
$SURFTYPE
 70
     6
  9
$SURFU
 70
     6
  9
$SURFV
 70
     6
  9
$UCSBASE
  2

  9
$UCSNAME
  2

  9
$UCSORG
 10
0.0
 20
0.0
 30
0.0
  9
$UCSXDIR
 10
1.0
 20
0.0
 30
0.0
  9
$UCSYDIR
 10
0.0
 20
1.0
 30
0.0
  9
$UCSORTHOREF
  2

  9
$UCSORTHOVIEW
 70
     0
  9
$UCSORGTOP
 10
0.0
 20
0.0
 30
0.0
  9
$UCSORGBOTTOM
 10
0.0
 20
0.0
 30
0.0
  9
$UCSORGLEFT
 10
0.0
 20
0.0
 30
0.0
  9
$UCSORGRIGHT
 10
0.0
 20
0.0
 30
0.0
  9
$UCSORGFRONT
 10
0.0
 20
0.0
 30
0.0
  9
$UCSORGBACK
 10
0.0
 20
0.0
 30
0.0
  9
$PUCSBASE
  2

  9
$PUCSNAME
  2

  9
$PUCSORG
 10
0.0
 20
0.0
 30
0.0
  9
$PUCSXDIR
 10
1.0
 20
0.0
 30
0.0
  9
$PUCSYDIR
 10
0.0
 20
1.0
 30
0.0
  9
$PUCSORTHOREF
  2

  9
$PUCSORTHOVIEW
 70
     0
  9
$PUCSORGTOP
 10
0.0
 20
0.0
 30
0.0
  9
$PUCSORGBOTTOM
 10
0.0
 20
0.0
 30
0.0
  9
$PUCSORGLEFT
 10
0.0
 20
0.0
 30
0.0
  9
$PUCSORGRIGHT
 10
0.0
 20
0.0
 30
0.0
  9
$PUCSORGFRONT
 10
0.0
 20
0.0
 30
0.0
  9
$PUCSORGBACK
 10
0.0
 20
0.0
 30
0.0
  9
$USERI1
 70
     0
  9
$USERI2
 70
     0
  9
$USERI3
 70
     0
  9
$USERI4
 70
     0
  9
$USERI5
 70
     0
  9
$USERR1
 40
0.0
  9
$USERR2
 40
0.0
  9
$USERR3
 40
0.0
  9
$USERR4
 40
0.0
  9
$USERR5
 40
0.0
  9
$WORLDVIEW
 70
     1
  9
$SHADEDGE
 70
     3
  9
$SHADEDIF
 70
    70
  9
$TILEMODE
 70
     1
  9
$MAXACTVP
 70
    64
  9
$PINSBASE
 10
0.0
 20
0.0
 30
0.0
  9
$PLIMCHECK
 70
     0
  9
$PEXTMIN
 10
1.000000000000000E+20
 20
1.000000000000000E+20
 30
1.000000000000000E+20
  9
$PEXTMAX
 10
-1.000000000000000E+20
 20
-1.000000000000000E+20
 30
-1.000000000000000E+20
  9
$PLIMMIN
 10
0.0
 20
0.0
  9
$PLIMMAX
 10
12.0
 20
9.0
  9
$UNITMODE
 70
     0
  9
$VISRETAIN
 70
     0
  9
$PLINEGEN
 70
     1
  9
$PSLTSCALE
 70
     0
  9
$TREEDEPTH
 70
  3020
  9
$CMLSTYLE
  2
Standard
  9
$CMLJUST
 70
     0
  9
$CMLSCALE
 40
1.0
  9
$PROXYGRAPHICS
 70
     1
  9
$MEASUREMENT
 70
     0
  9
$CELWEIGHT
370
    -1
  9
$ENDCAPS
280
     0
  9
$JOINSTYLE
280
     0
  9
$LWDISPLAY
290
     0
  9
$INSUNITS
 70
     0
  9
$HYPERLINKBASE
  1

  9
$STYLESHEET
  1

  9
$XEDIT
290
     1
  9
$CEPSNTYPE
380
     0
  9
$PSTYLEMODE
290
     1
  9
$FINGERPRINTGUID
  2
{FFD1F193-C3F2-7143-93F2-541AF525CA4E}
  9
$VERSIONGUID
  2
{8DC2DCFC-E798-C647-8DD5-8EDC2C4B4B5F}
  9
$EXTNAMES
290
     1
  9
$PSVPSCALE
 40
0.0
  9
$OLESTARTUP
290
     0
  0
ENDSEC
  0
SECTION
  2
CLASSES
  0
CLASS
  1
ACDBDICTIONARYWDFLT
  2
AcDbDictionaryWithDefault
  3
ObjectDBX Classes
 90
        0
280
     0
281
     0
  0
CLASS
  1
MATERIAL
  2
AcDbMaterial
  3
ObjectDBX Classes
 90
     1153
280
     0
281
     0
  0
CLASS
  1
VISUALSTYLE
  2
AcDbVisualStyle
  3
ObjectDBX Classes
 90
     4095
280
     0
281
     0
  0
CLASS
  1
SCALE
  2
AcDbScale
  3
ObjectDBX Classes
 90
     1153
280
     0
281
     0
  0
CLASS
  1
TABLESTYLE
  2
AcDbTableStyle
  3
ObjectDBX Classes
 90
     4095
280
     0
281
     0
  0
CLASS
  1
MLEADERSTYLE
  2
AcDbMLeaderStyle
  3
ACDB_MLEADERSTYLE_CLASS
 90
     4095
280
     0
281
     0
  0
CLASS
  1
ACDBSECTIONVIEWSTYLE
  2
AcDbSectionViewStyle
  3
ObjectDBX Classes
 90
     1025
280
     0
281
     0
  0
CLASS
  1
ACDBDETAILVIEWSTYLE
  2
AcDbDetailViewStyle
  3
ObjectDBX Classes
 90
     1025
280
     0
281
     0
  0
CLASS
  1
DICTIONARYVAR
  2
AcDbDictionaryVar
  3
ObjectDBX Classes
 90
        0
280
     0
281
     0
  0
CLASS
  1
CELLSTYLEMAP
  2
AcDbCellStyleMap
  3
ObjectDBX Classes
 90
     1152
280
     0
281
     0
  0
CLASS
  1
ACDBPLACEHOLDER
  2
AcDbPlaceHolder
  3
ObjectDBX Classes
 90
        0
280
     0
281
     0
  0
CLASS
  1
LAYOUT
  2
AcDbLayout
  3
ObjectDBX Classes
 90
        0
280
     0
281
     0
  0
ENDSEC
  0
SECTION
  2
TABLES
  0
TABLE
  2
VPORT
  5
33D
330
0
100
AcDbSymbolTable
 70
     1
  0
VPORT
  5
3A9
330
33D
100
AcDbSymbolTableRecord
100
AcDbViewportTableRecord
  2
*ACTIVE
 70
     0
 10
0.0
 20
0.0
 11
1.0
 21
1.0
 12
100.0000033527612
 22
134.2676534698121
 13
0.0
 23
0.0
 14
1.0
 24
1.0
 15
0.0
 25
0.0
 16
0.0
 26
0.0
 36
1.0
 17
0.0
 27
0.0
 37
0.0
 40
2152.957252733769
 41
2.358402971216341
 42
50.0
 43
0.0
 44
0.0
 50
0.0
 51
0.0
 71
     0
 72
  2000
 73
     1
 74
     1
 75
     0
 76
     0
 77
     0
 78
     0
281
     0
 65
     1
110
0.0
120
0.0
130
0.0
111
1.0
121
0.0
131
0.0
112
0.0
122
1.0
132
0.0
 79
     0
146
0.0
1001
ACAD_NAV_VCDISPLAY
1070
     3
  0
ENDTAB
  0
TABLE
  2
LTYPE
  5
33A
330
0
100
AcDbSymbolTable
 70
    11
  0
LTYPE
  5
38F
330
33A
100
AcDbSymbolTableRecord
100
AcDbLinetypeTableRecord
  2
ByBlock
 70
     0
  3

 72
    65
 73
     0
 40
0.0
  0
LTYPE
  5
390
330
33A
100
AcDbSymbolTableRecord
100
AcDbLinetypeTableRecord
  2
ByLayer
 70
     0
  3

 72
    65
 73
     0
 40
0.0
  0
LTYPE
  5
391
330
33A
100
AcDbSymbolTableRecord
100
AcDbLinetypeTableRecord
  2
CONTINUOUS
 70
     0
  3
Solid line
 72
    65
 73
     0
 40
0.0
  0
ENDTAB
  0
TABLE
  2
LAYER
  5
337
330
0
100
AcDbSymbolTable
 70
     6
  0
LAYER
  5
389
102
{ACAD_XDICTIONARY
360
3BE
102
}
330
337
100
AcDbSymbolTableRecord
100
AcDbLayerTableRecord
  2
0
 70
     0
 62
     7
  6
CONTINUOUS
370
    -3
390
344
  0
LAYER
  5
3A8
102
{ACAD_XDICTIONARY
360
3C0
102
}
330
337
100
AcDbSymbolTableRecord
100
AcDbLayerTableRecord
  2
DATA
 70
     0
 62
     7
  6
CONTINUOUS
370
    -3
390
344
  0
LAYER
  5
3B4
102
{ACAD_XDICTIONARY
360
3C2
102
}
330
337
100
AcDbSymbolTableRecord
100
AcDbLayerTableRecord
  2
HIBINO-BASE
 70
     0
 62
     7
  6
CONTINUOUS
370
    -3
390
344
  0
LAYER
  5
3B5
102
{ACAD_XDICTIONARY
360
3C4
102
}
330
337
100
AcDbSymbolTableRecord
100
AcDbLayerTableRecord
  2
PATTERN_FILL
 70
     0
 62
     7
  6
CONTINUOUS
370
    -3
390
344
  0
LAYER
  5
3B6
102
{ACAD_XDICTIONARY
360
3C6
102
}
330
337
100
AcDbSymbolTableRecord
100
AcDbLayerTableRecord
  2
SPEC
 70
     0
 62
     7
  6
CONTINUOUS
370
    -3
390
344
  0
LAYER
  5
3B7
102
{ACAD_XDICTIONARY
360
3C8
102
}
330
337
100
AcDbSymbolTableRecord
100
AcDbLayerTableRecord
  2
DIMNSIONS
 70
     0
 62
     7
  6
CONTINUOUS
370
    -3
390
344
  0
ENDTAB
  0
TABLE
  2
STYLE
  5
338
330
0
100
AcDbSymbolTable
 70
     3
  0
STYLE
  5
38A
330
338
100
AcDbSymbolTableRecord
100
AcDbTextStyleTableRecord
  2
STANDARD
 70
     0
 40
0.0
 41
1.0
 50
0.0
 71
     0
 42
0.0
  3
txt
  4
BIGFONT.SHX
  0
ENDTAB
  0
TABLE
  2
VIEW
  5
33B
330
0
100
AcDbSymbolTable
 70
     0
  0
ENDTAB
  0
TABLE
  2
UCS
  5
33C
330
0
100
AcDbSymbolTable
 70
     0
  0
ENDTAB
  0
TABLE
  2
APPID
  5
33E
330
0
100
AcDbSymbolTable
 70
     4
  0
APPID
  5
38B
330
33E
100
AcDbSymbolTableRecord
100
AcDbRegAppTableRecord
  2
ACAD
 70
     0
  0
APPID
  5
392
330
33E
100
AcDbSymbolTableRecord
100
AcDbRegAppTableRecord
  2
AcadAnnotative
 70
     0
  0
APPID
  5
3D4
330
33E
100
AcDbSymbolTableRecord
100
AcDbRegAppTableRecord
  2
ACAD_NAV_VCDISPLAY
 70
     0
  0
APPID
  5
40D
330
33E
100
AcDbSymbolTableRecord
100
AcDbRegAppTableRecord
  2
ACAD_MLEADERVER
 70
     0
  0
ENDTAB
  0
TABLE
  2
DIMSTYLE
  5
33F
330
0
100
AcDbSymbolTable
 70
     2
100
AcDbDimStyleTable
 71
     0
  0
DIMSTYLE
105
38C
330
33F
100
AcDbSymbolTableRecord
100
AcDbDimStyleTableRecord
  2
STANDARD
 70
     0
279
     2
340
38A
  0
ENDTAB
  0
TABLE
  2
BLOCK_RECORD
  5
336
330
0
100
AcDbSymbolTable
 70
     0
  0
BLOCK_RECORD
  5
3A4
330
336
100
AcDbSymbolTableRecord
100
AcDbBlockTableRecord
  2
*Model_Space
340
3A7
  0
BLOCK_RECORD
  5
3A0
330
336
100
AcDbSymbolTableRecord
100
AcDbBlockTableRecord
  2
*Paper_Space
340
3A3
  0
ENDTAB
  0
ENDSEC
  0
SECTION
  2
BLOCKS
  0
BLOCK
  5
3A5
330
3A4
100
AcDbEntity
  8
0
100
AcDbBlockBegin
  2
*Model_Space
 70
     0
 10
0.0
 20
0.0
 30
0.0
  3
*Model_Space
  1

  0
ENDBLK
  5
3A6
330
3A4
100
AcDbEntity
  8
0
100
AcDbBlockEnd
  0
BLOCK
  5
3A1
330
3A0
100
AcDbEntity
 67
     1
  8
0
100
AcDbBlockBegin
  2
*Paper_Space
 70
     0
 10
0.0
 20
0.0
 30
0.0
  3
*Paper_Space
  1

  0
ENDBLK
  5
3A2
330
3A0
100
AcDbEntity
 67
     1
  8
0
100
AcDbBlockEnd
  0
ENDSEC
  0
SECTION
  2
ENTITIES
  0
LINE
  5
2D
330
3A4
100
AcDbEntity
  8
HIBINO-BASE
  6
Continuous
 62
     7
100
AcDbLine
 10
-620.0
 20
1204.722705
 30
0.0
 11
820.0
 21
1204.722705
 31
0.0
  0
LINE
  5
2E
330
3A4
100
AcDbEntity
  8
HIBINO-BASE
  6
Continuous
 62
     7
100
AcDbLine
 10
820.0
 20
-875.2772950000002
 30
0.0
 11
-620.0
 21
-875.2772950000002
 31
0.0
  0
LINE
  5
2F
330
3A4
100
AcDbEntity
  8
HIBINO-BASE
  6
Continuous
 62
     7
100
AcDbLine
 10
-620.0
 20
-875.2772950000002
 30
0.0
 11
-620.0
 21
1204.722705
 31
0.0
  0
LINE
  5
30
330
3A4
100
AcDbEntity
  8
HIBINO-BASE
  6
Continuous
 62
     7
100
AcDbLine
 10
820.0
 20
1204.722705
 30
0.0
 11
820.0
 21
-875.2772950000002
 31
0.0
  0
LINE
  5
31
330
3A4
100
AcDbEntity
  8
HIBINO-BASE
  6
Continuous
 62
     7
100
AcDbLine
 10
100.0
 20
-695.2772950000002
 30
0.0
 11
820.0
 21
-695.2772950000002
 31
0.0
  0
LINE
  5
32
330
3A4
100
AcDbEntity
  8
HIBINO-BASE
  6
Continuous
 62
     7
100
AcDbLine
 10
100.0
 20
-875.2772950000002
 30
0.0
 11
100.0
 21
-695.2772950000002
 31
0.0
  0
TEXT
  5
33
330
3A4
100
AcDbEntity
  8
HIBINO-BASE
 62
     7
100
AcDbText
 10
107.2
 20
-715.3468416666667
 30
0.0
 40
13.03072916666666
  1
NOTE
 41
0.7
 11
107.2
 21
-702.3161125
 31
0.0
100
AcDbText
 73
     3
  0
LINE
  5
34
330
3A4
100
AcDbEntity
  8
HIBINO-BASE
  6
Continuous
 62
     7
100
AcDbLine
 10
380.0
 20
-875.2772950000002
 30
0.0
 11
380.0
 21
-695.2772950000002
 31
0.0
  0
TEXT
  5
35
330
3A4
100
AcDbEntity
  8
HIBINO-BASE
 62
     7
100
AcDbText
 10
387.1999999999999
 20
-715.3468416666667
 30
0.0
 40
13.03072916666666
  1
TITLE
 41
0.7
 11
387.1999999999999
 21
-702.3161125
 31
0.0
100
AcDbText
 73
     3
  0
LINE
  5
36
330
3A4
100
AcDbEntity
  8
HIBINO-BASE
  6
Continuous
 62
     7
100
AcDbLine
 10
100.0
 20
-795.2772950000002
 30
0.0
 11
820.0
 21
-795.2772950000002
 31
0.0
  0
TEXT
  5
37
330
3A4
100
AcDbEntity
  8
HIBINO-BASE
 62
     7
100
AcDbText
 10
487.1999999999998
 20
-814.8962816666667
 30
0.0
 40
13.03072916666666
  1
DRAWN
 41
0.7
 11
487.1999999999998
 21
-801.8655524999999
 31
0.0
100
AcDbText
 73
     3
  0
TEXT
  5
38
330
3A4
100
AcDbEntity
  8
HIBINO-BASE
 62
     7
100
AcDbText
 10
287.1999999999998
 20
-814.8962816666667
 30
0.0
 40
13.03072916666666
  1
DATE
 41
0.7
 11
287.1999999999998
 21
-801.8655524999999
 31
0.0
100
AcDbText
 73
     3
  0
TEXT
  5
39
330
3A4
100
AcDbEntity
  8
HIBINO-BASE
 62
     7
100
AcDbText
 10
207.1999999999998
 20
-814.8962816666667
 30
0.0
 40
13.03072916666666
  1
SCALE
 41
0.7
 11
207.1999999999998
 21
-801.8655524999999
 31
0.0
100
AcDbText
 73
     3
  0
TEXT
  5
3A
330
3A4
100
AcDbEntity
  8
HIBINO-BASE
 62
     7
100
AcDbText
 10
387.1999999999999
 20
-814.8962816666667
 30
0.0
 40
13.03072916666666
  1
DESIGN
 41
0.7
 11
387.1999999999999
 21
-801.8655524999999
 31
0.0
100
AcDbText
 73
     3
  0
TEXT
  5
3B
330
3A4
100
AcDbEntity
  8
HIBINO-BASE
 62
     7
100
AcDbText
 10
687.1999999999998
 20
-814.8962816666667
 30
0.0
 40
13.03072916666666
  1
DRAWING NO.
 41
0.7
 11
687.1999999999998
 21
-801.8655524999999
 31
0.0
100
AcDbText
 73
     3
  0
TEXT
  5
3C
330
3A4
100
AcDbEntity
  8
HIBINO-BASE
 62
     7
100
AcDbText
 10
587.1999999999998
 20
-814.8962816666667
 30
0.0
 40
13.03072916666666
  1
CHECK
 41
0.7
 11
587.1999999999998
 21
-801.8655524999999
 31
0.0
100
AcDbText
 73
     3
  0
LINE
  5
3D
330
3A4
100
AcDbEntity
  8
HIBINO-BASE
  6
Continuous
 62
     7
100
AcDbLine
 10
215.0
 20
-865.2772950000002
 30
0.0
 11
245.0
 21
-835.2772950000002
 31
0.0
  0
TEXT
  5
3E
330
3A4
100
AcDbEntity
  8
HIBINO-BASE
 62
     7
100
AcDbText
 10
210.0
 20
-844.1488416666668
 30
0.0
 40
13.03072916666666
  1
1
 41
0.7
 11
210.0
 21
-831.1181125
 31
0.0
100
AcDbText
 73
     3
  0
LINE
  5
3F
330
3A4
100
AcDbEntity
  8
HIBINO-BASE
  6
Continuous
 62
     7
100
AcDbLine
 10
200.0
 20
-875.2772950000002
 30
0.0
 11
200.0
 21
-795.2772950000002
 31
0.0
  0
LINE
  5
40
330
3A4
100
AcDbEntity
  8
HIBINO-BASE
  6
Continuous
 62
     7
100
AcDbLine
 10
280.0
 20
-875.2772950000002
 30
0.0
 11
280.0
 21
-795.2772950000002
 31
0.0
  0
LINE
  5
41
330
3A4
100
AcDbEntity
  8
HIBINO-BASE
  6
Continuous
 62
     7
100
AcDbLine
 10
480.0
 20
-795.2772950000002
 30
0.0
 11
480.0
 21
-875.2772950000002
 31
0.0
  0
LINE
  5
42
330
3A4
100
AcDbEntity
  8
HIBINO-BASE
  6
Continuous
 62
     7
100
AcDbLine
 10
680.0
 20
-795.2772950000002
 30
0.0
 11
680.0
 21
-875.2772950000002
 31
0.0
  0
LINE
  5
43
330
3A4
100
AcDbEntity
  8
HIBINO-BASE
  6
Continuous
 62
     7
100
AcDbLine
 10
580.0
 20
-875.2772950000002
 30
0.0
 11
580.0
 21
-795.2772950000002
 31
0.0
  0
TEXT
  5
44
330
3A4
100
AcDbEntity
  8
HIBINO-BASE
 62
     7
100
AcDbText
 10
286.85232
 20
-852.3681216666664
 30
0.0
 40
13.03072916666666
  1
'17.02.
 41
0.7
 11
286.85232
 21
-839.3373924999998
 31
0.0
100
AcDbText
 73
     3
  0
TEXT
  5
45
330
3A4
100
AcDbEntity
  8
HIBINO-BASE
 62
     7
100
AcDbText
 10
240.0
 20
-859.1488416666669
 30
0.0
 40
13.03072916666666
  1
8
 41
0.7
 11
240.0
 21
-846.1181125000001
 31
0.0
100
AcDbText
 73
     3
  0
TEXT
  5
46
330
3A4
100
AcDbEntity
  8
HIBINO-BASE
 62
     7
100
AcDbText
 10
492.0464800882768
 20
-852.3681216666664
 30
0.0
 40
13.03072916666666
  1
N.Sasaki
 41
0.7
 11
492.0464800882768
 21
-839.3373924999998
 31
0.0
100
AcDbText
 73
     3
  0
TEXT
  5
47
330
3A4
100
AcDbEntity
  8
HIBINO-BASE
 62
     7
100
AcDbText
 10
131.0666666666668
 20
-859.4692949999998
 30
0.0
 40
26.06145833333333
  1
A4
 41
0.7
 11
131.0666666666668
 21
-833.4078366666664
 31
0.0
100
AcDbText
 73
     3
  0
TEXT
  5
48
330
3A4
100
AcDbEntity
  8
HIBINO-BASE
 62
     7
100
AcDbText
 10
107.6666666666667
 20
-816.232935
 30
0.0
 40
13.03072916666666
  1
PAPER SIZE
 41
0.7
 11
107.6666666666667
 21
-803.2022058333334
 31
0.0
100
AcDbText
 73
     3
  0
TEXT
  5
49
330
3A4
100
AcDbEntity
  8
HIBINO-BASE
 62
     7
100
AcDbText
 10
-562.5279999999998
 20
-926.5467174000001
 30
0.0
 40
28.8003534375
  1
Hibino Corporation
 41
0.7
 11
-562.5279999999998
 21
-897.7463639625
 31
0.0
100
AcDbText
 73
     3
  0
TEXT
  5
4A
330
3A4
100
AcDbEntity
  8
HIBINO-BASE
 62
     7
100
AcDbText
 10
500.5471200000001
 20
-926.5467174000001
 30
0.0
 40
28.8003534375
  1
ヒビノ株式会社
 41
0.7
 11
500.5471200000001
 21
-897.7463639625
 31
0.0
100
AcDbText
 73
     3
  0
CIRCLE
  5
4B
330
3A4
100
AcDbEntity
  8
PATTERN_FILL
  6
Continuous
 62
     7
100
AcDbCircle
 10
-246.5359026820923
 20
-136.756757
 30
0.0
 40
2.459459449999996
  0
CIRCLE
  5
4C
330
3A4
100
AcDbEntity
  8
PATTERN_FILL
  6
Continuous
 62
     7
100
AcDbCircle
 10
-246.5359026820923
 20
-143.783784
 30
0.0
 40
2.459459450000053
  0
CIRCLE
  5
4D
330
3A4
100
AcDbEntity
  8
PATTERN_FILL
  6
Continuous
 62
     7
100
AcDbCircle
 10
-246.5359026820923
 20
-150.810811
 30
0.0
 40
2.459459449999996
  0
CIRCLE
  5
4E
330
3A4
100
AcDbEntity
  8
PATTERN_FILL
  6
Continuous
 62
     7
100
AcDbCircle
 10
-246.5359026820923
 20
-157.8378379999999
 30
0.0
 40
2.459459449999996
  0
CIRCLE
  5
4F
330
3A4
100
AcDbEntity
  8
PATTERN_FILL
  6
Continuous
 62
     7
100
AcDbCircle
 10
-246.5359026820923
 20
-164.864865
 30
0.0
 40
2.459459449999996
  0
CIRCLE
  5
50
330
3A4
100
AcDbEntity
  8
PATTERN_FILL
  6
Continuous
 62
     7
100
AcDbCircle
 10
-246.5359026820923
 20
-171.8918919999999
 30
0.0
 40
2.459459449999996
  0
CIRCLE
  5
51
330
3A4
100
AcDbEntity
  8
PATTERN_FILL
  6
Continuous
 62
     7
100
AcDbCircle
 10
-246.5359026820923
 20
-178.918919
 30
0.0
 40
2.459459449999996
  0
CIRCLE
  5
52
330
3A4
100
AcDbEntity
  8
PATTERN_FILL
  6
Continuous
 62
     7
100
AcDbCircle
 10
-246.5359026820923
 20
-185.945946
 30
0.0
 40
2.459459449999996
  0
CIRCLE
  5
53
330
3A4
100
AcDbEntity
  8
PATTERN_FILL
  6
Continuous
 62
     7
100
AcDbCircle
 10
-246.5359026820923
 20
-192.972973
 30
0.0
 40
2.459459449999996
  0
CIRCLE
  5
54
330
3A4
100
AcDbEntity
  8
PATTERN_FILL
  6
Continuous
 62
     7
100
AcDbCircle
 10
-246.5359026820923
 20
-200.0
 30
0.0
 40
2.459459449999996
  0
CIRCLE
  5
55
330
3A4
100
AcDbEntity
  8
PATTERN_FILL
  6
Continuous
 62
     7
100
AcDbCircle
 10
-246.5359026820923
 20
-207.027027
 30
0.0
 40
2.459459450000053
  0
CIRCLE
  5
56
330
3A4
100
AcDbEntity
  8
PATTERN_FILL
  6
Continuous
 62
     7
100
AcDbCircle
 10
-246.5359026820923
 20
-214.054054
 30
0.0
 40
2.459459449999996
  0
CIRCLE
  5
57
330
3A4
100
AcDbEntity
  8
PATTERN_FILL
  6
Continuous
 62
     7
100
AcDbCircle
 10
-246.5359026820923
 20
-221.081081
 30
0.0
 40
2.459459449999996
  0
CIRCLE
  5
58
330
3A4
100
AcDbEntity
  8
PATTERN_FILL
  6
Continuous
 62
     7
100
AcDbCircle
 10
-246.5359026820923
 20
-228.108108
 30
0.0
 40
2.459459449999996
  0
CIRCLE
  5
59
330
3A4
100
AcDbEntity
  8
PATTERN_FILL
  6
Continuous
 62
     7
100
AcDbCircle
 10
-246.5359026820923
 20
-235.135135
 30
0.0
 40
2.459459449999996
  0
CIRCLE
  5
5A
330
3A4
100
AcDbEntity
  8
PATTERN_FILL
  6
Continuous
 62
     7
100
AcDbCircle
 10
-246.5359026820923
 20
-242.162162
 30
0.0
 40
2.459459449999996
  0
CIRCLE
  5
5B
330
3A4
100
AcDbEntity
  8
PATTERN_FILL
  6
Continuous
 62
     7
100
AcDbCircle
 10
-246.5359026820923
 20
-249.189189
 30
0.0
 40
2.459459449999996
  0
CIRCLE
  5
5C
330
3A4
100
AcDbEntity
  8
PATTERN_FILL
  6
Continuous
 62
     7
100
AcDbCircle
 10
-246.5359026820923
 20
-256.216216
 30
0.0
 40
2.459459449999996
  0
CIRCLE
  5
5D
330
3A4
100
AcDbEntity
  8
PATTERN_FILL
  6
Continuous
 62
     7
100
AcDbCircle
 10
-246.5359026820923
 20
-263.243243
 30
0.0
 40
2.459459449999996
  0
CIRCLE
  5
5E
330
3A4
100
AcDbEntity
  8
PATTERN_FILL
  6
Continuous
 62
     7
100
AcDbCircle
 10
-246.5359026820923
 20
-122.702703
 30
0.0
 40
2.459459449999996
  0
CIRCLE
  5
5F
330
3A4
100
AcDbEntity
  8
PATTERN_FILL
  6
Continuous
 62
     7
100
AcDbCircle
 10
-246.5359026820923
 20
-129.72973
 30
0.0
 40
2.459459449999996
  0
ARC
  5
60
330
3A4
100
AcDbEntity
  8
PATTERN_FILL
  6
Continuous
 62
     7
100
AcDbCircle
 10
-246.5359026820923
 20
-115.675676
 30
0.0
 40
2.459459450000012
100
AcDbArc
 50
195.0882488000594
 51
138.430711369566
  0
ARC
  5
61
330
3A4
100
AcDbEntity
  8
PATTERN_FILL
  6
Continuous
 62
     7
100
AcDbCircle
 10
-246.5359026820924
 20
-108.6486489999999
 30
0.0
 40
2.459459450000121
100
AcDbArc
 50
243.707137161815
 51
89.81182300781393
  0
ARC
  5
62
330
3A4
100
AcDbEntity
  8
PATTERN_FILL
  6
Continuous
 62
     7
100
AcDbCircle
 10
-246.5359026820923
 20
-101.621622
 30
0.0
 40
2.459459450000046
100
AcDbArc
 50
282.1354982512416
 51
51.38346191838386
  0
CIRCLE
  5
63
330
3A4
100
AcDbEntity
  8
PATTERN_FILL
  6
Continuous
 62
     7
100
AcDbCircle
 10
-246.5359026820923
 20
-270.27027
 30
0.0
 40
2.459459450000053
  0
CIRCLE
  5
64
330
3A4
100
AcDbEntity
  8
PATTERN_FILL
  6
Continuous
 62
     7
100
AcDbCircle
 10
-246.5359026820923
 20
-277.297297
 30
0.0
 40
2.459459449999996
  0
ARC
  5
65
330
3A4
100
AcDbEntity
  8
PATTERN_FILL
  6
Continuous
 62
     7
100
AcDbCircle
 10
-246.5359026820924
 20
-284.324324
 30
0.0
 40
2.459459449999869
100
AcDbArc
 50
221.5692886306383
 51
164.9117511997323
  0
ARC
  5
66
330
3A4
100
AcDbEntity
  8
PATTERN_FILL
  6
Continuous
 62
     7
100
AcDbCircle
 10
-246.5359026820923
 20
-291.3513510000001
 30
0.0
 40
2.459459449999863
100
AcDbArc
 50
270.188176992206
 51
116.2928628381714
  0
ARC
  5
67
330
3A4
100
AcDbEntity
  8
PATTERN_FILL
  6
Continuous
 62
     7
100
AcDbCircle
 10
-246.5359026820923
 20
-298.378378
 30
0.0
 40
2.459459450000176
100
AcDbArc
 50
308.6165380815881
 51
77.86450174878338
  0
ARC
  5
68
330
3A4
100
AcDbEntity
  8
PATTERN_FILL
  6
Continuous
 62
     7
100
AcDbCircle
 10
-359.8523763549836
 20
-102.210170586308
 30
0.0
 40
3.49999999999992
100
AcDbArc
 50
170.3200510427347
 51
325.0387364041635
  0
ARC
  5
69
330
3A4
100
AcDbEntity
  8
PATTERN_FILL
  6
Continuous
 62
     7
100
AcDbCircle
 10
-369.8523763549832
 20
-102.210170586308
 30
0.0
 40
3.500000000000097
100
AcDbArc
 50
113.816438564755
 51
31.91555008741268
  0
CIRCLE
  5
6A
330
3A4
100
AcDbEntity
  8
PATTERN_FILL
  6
Continuous
 62
     7
100
AcDbCircle
 10
-379.8523763549834
 20
-102.210170586308
 30
0.0
 40
3.5
  0
CIRCLE
  5
6B
330
3A4
100
AcDbEntity
  8
PATTERN_FILL
  6
Continuous
 62
     7
100
AcDbCircle
 10
-389.8523763549834
 20
-102.210170586308
 30
0.0
 40
3.5
  0
CIRCLE
  5
6C
330
3A4
100
AcDbEntity
  8
PATTERN_FILL
  6
Continuous
 62
     7
100
AcDbCircle
 10
-399.8523763549835
 20
-102.210170586308
 30
0.0
 40
3.5
  0
CIRCLE
  5
6D
330
3A4
100
AcDbEntity
  8
PATTERN_FILL
  6
Continuous
 62
     7
100
AcDbCircle
 10
-409.8523763549834
 20
-102.210170586308
 30
0.0
 40
3.5
  0
CIRCLE
  5
6E
330
3A4
100
AcDbEntity
  8
PATTERN_FILL
  6
Continuous
 62
     7
100
AcDbCircle
 10
-419.8523763549834
 20
-102.210170586308
 30
0.0
 40
3.5
  0
ARC
  5
6F
330
3A4
100
AcDbEntity
  8
PATTERN_FILL
  6
Continuous
 62
     7
100
AcDbCircle
 10
-429.8523763549834
 20
-102.210170586308
 30
0.0
 40
3.500000000000003
100
AcDbArc
 50
145.6541518160984
 51
68.29764486531577
  0
ARC
  5
70
330
3A4
100
AcDbEntity
  8
PATTERN_FILL
  6
Continuous
 62
     7
100
AcDbCircle
 10
-439.8523763549834
 20
-102.210170586308
 30
0.0
 40
3.500000000000011
100
AcDbArc
 50
212.9568070028393
 51
11.38802001919839
  0
ARC
  5
71
330
3A4
100
AcDbEntity
  8
PATTERN_FILL
  6
Continuous
 62
     7
100
AcDbCircle
 10
-339.8523763549834
 20
-112.210170586308
 30
0.0
 40
3.49999999999997
100
AcDbArc
 50
170.348128729881
 51
300.8192878646899
  0
CIRCLE
  5
72
330
3A4
100
AcDbEntity
  8
PATTERN_FILL
  6
Continuous
 62
     7
100
AcDbCircle
 10
-349.8523763549834
 20
-112.210170586308
 30
0.0
 40
3.5
  0
CIRCLE
  5
73
330
3A4
100
AcDbEntity
  8
PATTERN_FILL
  6
Continuous
 62
     7
100
AcDbCircle
 10
-359.8523763549835
 20
-112.210170586308
 30
0.0
 40
3.5
  0
CIRCLE
  5
74
330
3A4
100
AcDbEntity
  8
PATTERN_FILL
  6
Continuous
 62
     7
100
AcDbCircle
 10
-369.8523763549835
 20
-112.210170586308
 30
0.0
 40
3.5
  0
CIRCLE
  5
75
330
3A4
100
AcDbEntity
  8
PATTERN_FILL
  6
Continuous
 62
     7
100
AcDbCircle
 10
-379.8523763549834
 20
-112.210170586308
 30
0.0
 40
3.5
  0
CIRCLE
  5
76
330
3A4
100
AcDbEntity
  8
PATTERN_FILL
  6
Continuous
 62
     7
100
AcDbCircle
 10
-389.8523763549834
 20
-112.210170586308
 30
0.0
 40
3.5
  0
CIRCLE
  5
77
330
3A4
100
AcDbEntity
  8
PATTERN_FILL
  6
Continuous
 62
     7
100
AcDbCircle
 10
-399.8523763549835
 20
-112.210170586308
 30
0.0
 40
3.5
  0
CIRCLE
  5
78
330
3A4
100
AcDbEntity
  8
PATTERN_FILL
  6
Continuous
 62
     7
100
AcDbCircle
 10
-409.8523763549834
 20
-112.210170586308
 30
0.0
 40
3.5
  0
CIRCLE
  5
79
330
3A4
100
AcDbEntity
  8
PATTERN_FILL
  6
Continuous
 62
     7
100
AcDbCircle
 10
-419.8523763549834
 20
-112.210170586308
 30
0.0
 40
3.5
  0
CIRCLE
  5
7A
330
3A4
100
AcDbEntity
  8
PATTERN_FILL
  6
Continuous
 62
     7
100
AcDbCircle
 10
-429.8523763549834
 20
-112.210170586308
 30
0.0
 40
3.5
  0
CIRCLE
  5
7B
330
3A4
100
AcDbEntity
  8
PATTERN_FILL
  6
Continuous
 62
     7
100
AcDbCircle
 10
-439.8523763549834
 20
-112.210170586308
 30
0.0
 40
3.5
  0
CIRCLE
  5
7C
330
3A4
100
AcDbEntity
  8
PATTERN_FILL
  6
Continuous
 62
     7
100
AcDbCircle
 10
-449.8523763549834
 20
-112.210170586308
 30
0.0
 40
3.5
  0
ARC
  5
7D
330
3A4
100
AcDbEntity
  8
PATTERN_FILL
  6
Continuous
 62
     7
100
AcDbCircle
 10
-459.8523763549835
 20
-112.210170586308
 30
0.0
 40
3.499999999999908
100
AcDbArc
 50
236.1183588342703
 51
12.45154073036665
  0
ARC
  5
7E
330
3A4
100
AcDbEntity
  8
PATTERN_FILL
  6
Continuous
 62
     7
100
AcDbCircle
 10
-329.8523763549834
 20
-122.2101705863079
 30
0.0
 40
3.499999999999932
100
AcDbArc
 50
134.7670879420348
 51
321.1472664782248
  0
CIRCLE
  5
7F
330
3A4
100
AcDbEntity
  8
PATTERN_FILL
  6
Continuous
 62
     7
100
AcDbCircle
 10
-339.8523763549834
 20
-122.210170586308
 30
0.0
 40
3.5
  0
CIRCLE
  5
80
330
3A4
100
AcDbEntity
  8
PATTERN_FILL
  6
Continuous
 62
     7
100
AcDbCircle
 10
-349.8523763549834
 20
-122.210170586308
 30
0.0
 40
3.5
  0
CIRCLE
  5
81
330
3A4
100
AcDbEntity
  8
PATTERN_FILL
  6
Continuous
 62
     7
100
AcDbCircle
 10
-359.8523763549835
 20
-122.210170586308
 30
0.0
 40
3.5
  0
CIRCLE
  5
82
330
3A4
100
AcDbEntity
  8
PATTERN_FILL
  6
Continuous
 62
     7
100
AcDbCircle
 10
-369.8523763549835
 20
-122.210170586308
 30
0.0
 40
3.5
  0
CIRCLE
  5
83
330
3A4
100
AcDbEntity
  8
PATTERN_FILL
  6
Continuous
 62
     7
100
AcDbCircle
 10
-379.8523763549834
 20
-122.210170586308
 30
0.0
 40
3.5
  0
CIRCLE
  5
84
330
3A4
100
AcDbEntity
  8
PATTERN_FILL
  6
Continuous
 62
     7
100
AcDbCircle
 10
-389.8523763549834
 20
-122.210170586308
 30
0.0
 40
3.5
  0
CIRCLE
  5
85
330
3A4
100
AcDbEntity
  8
PATTERN_FILL
  6
Continuous
 62
     7
100
AcDbCircle
 10
-399.8523763549835
 20
-122.210170586308
 30
0.0
 40
3.5
  0
CIRCLE
  5
86
330
3A4
100
AcDbEntity
  8
PATTERN_FILL
  6
Continuous
 62
     7
100
AcDbCircle
 10
-409.8523763549834
 20
-122.210170586308
 30
0.0
 40
3.5
  0
CIRCLE
  5
87
330
3A4
100
AcDbEntity
  8
PATTERN_FILL
  6
Continuous
 62
     7
100
AcDbCircle
 10
-419.8523763549834
 20
-122.210170586308
 30
0.0
 40
3.5
  0
CIRCLE
  5
88
330
3A4
100
AcDbEntity
  8
PATTERN_FILL
  6
Continuous
 62
     7
100
AcDbCircle
 10
-429.8523763549834
 20
-122.210170586308
 30
0.0
 40
3.5
  0
CIRCLE
  5
89
330
3A4
100
AcDbEntity
  8
PATTERN_FILL
  6
Continuous
 62
     7
100
AcDbCircle
 10
-439.8523763549834
 20
-122.210170586308
 30
0.0
 40
3.5
  0
CIRCLE
  5
8A
330
3A4
100
AcDbEntity
  8
PATTERN_FILL
  6
Continuous
 62
     7
100
AcDbCircle
 10
-449.8523763549834
 20
-122.210170586308
 30
0.0
 40
3.5
  0
CIRCLE
  5
8B
330
3A4
100
AcDbEntity
  8
PATTERN_FILL
  6
Continuous
 62
     7
100
AcDbCircle
 10
-459.8523763549834
 20
-122.210170586308
 30
0.0
 40
3.5
  0
ARC
  5
8C
330
3A4
100
AcDbEntity
  8
PATTERN_FILL
  6
Continuous
 62
     7
100
AcDbCircle
 10
-469.8523763549836
 20
-122.210170586308
 30
0.0
 40
3.499999999999912
100
AcDbArc
 50
215.4785609666322
 51
48.3667603598053
  0
ARC
  5
8D
330
3A4
100
AcDbEntity
  8
PATTERN_FILL
  6
Continuous
 62
     7
100
AcDbCircle
 10
-319.8523763549835
 20
-132.2101705863079
 30
0.0
 40
3.500000000000015
100
AcDbArc
 50
130.7202870667882
 51
309.7296037880783
  0
CIRCLE
  5
8E
330
3A4
100
AcDbEntity
  8
PATTERN_FILL
  6
Continuous
 62
     7
100
AcDbCircle
 10
-329.8523763549834
 20
-132.2101705863079
 30
0.0
 40
3.5
  0
CIRCLE
  5
8F
330
3A4
100
AcDbEntity
  8
PATTERN_FILL
  6
Continuous
 62
     7
100
AcDbCircle
 10
-339.8523763549834
 20
-132.2101705863079
 30
0.0
 40
3.5
  0
CIRCLE
  5
90
330
3A4
100
AcDbEntity
  8
PATTERN_FILL
  6
Continuous
 62
     7
100
AcDbCircle
 10
-349.8523763549834
 20
-132.2101705863079
 30
0.0
 40
3.5
  0
CIRCLE
  5
91
330
3A4
100
AcDbEntity
  8
PATTERN_FILL
  6
Continuous
 62
     7
100
AcDbCircle
 10
-359.8523763549835
 20
-132.2101705863079
 30
0.0
 40
3.5
  0
CIRCLE
  5
92
330
3A4
100
AcDbEntity
  8
PATTERN_FILL
  6
Continuous
 62
     7
100
AcDbCircle
 10
-369.8523763549835
 20
-132.2101705863079
 30
0.0
 40
3.5
  0
CIRCLE
  5
93
330
3A4
100
AcDbEntity
  8
PATTERN_FILL
  6
Continuous
 62
     7
100
AcDbCircle
 10
-379.8523763549834
 20
-132.2101705863079
 30
0.0
 40
3.5
  0
CIRCLE
  5
94
330
3A4
100
AcDbEntity
  8
PATTERN_FILL
  6
Continuous
 62
     7
100
AcDbCircle
 10
-389.8523763549834
 20
-132.2101705863079
 30
0.0
 40
3.5
  0
CIRCLE
  5
95
330
3A4
100
AcDbEntity
  8
PATTERN_FILL
  6
Continuous
 62
     7
100
AcDbCircle
 10
-399.8523763549835
 20
-132.2101705863079
 30
0.0
 40
3.5
  0
CIRCLE
  5
96
330
3A4
100
AcDbEntity
  8
PATTERN_FILL
  6
Continuous
 62
     7
100
AcDbCircle
 10
-409.8523763549834
 20
-132.2101705863079
 30
0.0
 40
3.5
  0
CIRCLE
  5
97
330
3A4
100
AcDbEntity
  8
PATTERN_FILL
  6
Continuous
 62
     7
100
AcDbCircle
 10
-419.8523763549834
 20
-132.2101705863079
 30
0.0
 40
3.5
  0
CIRCLE
  5
98
330
3A4
100
AcDbEntity
  8
PATTERN_FILL
  6
Continuous
 62
     7
100
AcDbCircle
 10
-429.8523763549834
 20
-132.2101705863079
 30
0.0
 40
3.5
  0
CIRCLE
  5
99
330
3A4
100
AcDbEntity
  8
PATTERN_FILL
  6
Continuous
 62
     7
100
AcDbCircle
 10
-439.8523763549834
 20
-132.2101705863079
 30
0.0
 40
3.5
  0
CIRCLE
  5
9A
330
3A4
100
AcDbEntity
  8
PATTERN_FILL
  6
Continuous
 62
     7
100
AcDbCircle
 10
-449.8523763549834
 20
-132.2101705863079
 30
0.0
 40
3.5
  0
CIRCLE
  5
9B
330
3A4
100
AcDbEntity
  8
PATTERN_FILL
  6
Continuous
 62
     7
100
AcDbCircle
 10
-459.8523763549834
 20
-132.2101705863079
 30
0.0
 40
3.5
  0
CIRCLE
  5
9C
330
3A4
100
AcDbEntity
  8
PATTERN_FILL
  6
Continuous
 62
     7
100
AcDbCircle
 10
-469.8523763549834
 20
-132.2101705863079
 30
0.0
 40
3.5
  0
ARC
  5
9D
330
3A4
100
AcDbEntity
  8
PATTERN_FILL
  6
Continuous
 62
     7
100
AcDbCircle
 10
-479.8523763549834
 20
-132.2101705863079
 30
0.0
 40
3.50000000000002
100
AcDbArc
 50
226.4741097269852
 51
52.86741107765087
  0
ARC
  5
9E
330
3A4
100
AcDbEntity
  8
PATTERN_FILL
  6
Continuous
 62
     7
100
AcDbCircle
 10
-309.8523763549835
 20
-142.2101705863079
 30
0.0
 40
3.5
100
AcDbArc
 50
159.8931711060749
 51
265.4312590905931
  0
CIRCLE
  5
9F
330
3A4
100
AcDbEntity
  8
PATTERN_FILL
  6
Continuous
 62
     7
100
AcDbCircle
 10
-319.8523763549835
 20
-142.2101705863079
 30
0.0
 40
3.5
  0
CIRCLE
  5
A0
330
3A4
100
AcDbEntity
  8
PATTERN_FILL
  6
Continuous
 62
     7
100
AcDbCircle
 10
-329.8523763549834
 20
-142.2101705863079
 30
0.0
 40
3.5
  0
CIRCLE
  5
A1
330
3A4
100
AcDbEntity
  8
PATTERN_FILL
  6
Continuous
 62
     7
100
AcDbCircle
 10
-339.8523763549834
 20
-142.2101705863079
 30
0.0
 40
3.5
  0
CIRCLE
  5
A2
330
3A4
100
AcDbEntity
  8
PATTERN_FILL
  6
Continuous
 62
     7
100
AcDbCircle
 10
-349.8523763549834
 20
-142.2101705863079
 30
0.0
 40
3.5
  0
CIRCLE
  5
A3
330
3A4
100
AcDbEntity
  8
PATTERN_FILL
  6
Continuous
 62
     7
100
AcDbCircle
 10
-359.8523763549835
 20
-142.2101705863079
 30
0.0
 40
3.5
  0
CIRCLE
  5
A4
330
3A4
100
AcDbEntity
  8
PATTERN_FILL
  6
Continuous
 62
     7
100
AcDbCircle
 10
-369.8523763549835
 20
-142.2101705863079
 30
0.0
 40
3.5
  0
CIRCLE
  5
A5
330
3A4
100
AcDbEntity
  8
PATTERN_FILL
  6
Continuous
 62
     7
100
AcDbCircle
 10
-379.8523763549834
 20
-142.2101705863079
 30
0.0
 40
3.5
  0
CIRCLE
  5
A6
330
3A4
100
AcDbEntity
  8
PATTERN_FILL
  6
Continuous
 62
     7
100
AcDbCircle
 10
-389.8523763549834
 20
-142.2101705863079
 30
0.0
 40
3.5
  0
CIRCLE
  5
A7
330
3A4
100
AcDbEntity
  8
PATTERN_FILL
  6
Continuous
 62
     7
100
AcDbCircle
 10
-399.8523763549835
 20
-142.2101705863079
 30
0.0
 40
3.5
  0
CIRCLE
  5
A8
330
3A4
100
AcDbEntity
  8
PATTERN_FILL
  6
Continuous
 62
     7
100
AcDbCircle
 10
-409.8523763549834
 20
-142.2101705863079
 30
0.0
 40
3.5
  0
CIRCLE
  5
A9
330
3A4
100
AcDbEntity
  8
PATTERN_FILL
  6
Continuous
 62
     7
100
AcDbCircle
 10
-419.8523763549834
 20
-142.2101705863079
 30
0.0
 40
3.5
  0
CIRCLE
  5
AA
330
3A4
100
AcDbEntity
  8
PATTERN_FILL
  6
Continuous
 62
     7
100
AcDbCircle
 10
-429.8523763549834
 20
-142.2101705863079
 30
0.0
 40
3.5
  0
CIRCLE
  5
AB
330
3A4
100
AcDbEntity
  8
PATTERN_FILL
  6
Continuous
 62
     7
100
AcDbCircle
 10
-439.8523763549834
 20
-142.2101705863079
 30
0.0
 40
3.5
  0
CIRCLE
  5
AC
330
3A4
100
AcDbEntity
  8
PATTERN_FILL
  6
Continuous
 62
     7
100
AcDbCircle
 10
-449.8523763549834
 20
-142.2101705863079
 30
0.0
 40
3.5
  0
CIRCLE
  5
AD
330
3A4
100
AcDbEntity
  8
PATTERN_FILL
  6
Continuous
 62
     7
100
AcDbCircle
 10
-459.8523763549834
 20
-142.2101705863079
 30
0.0
 40
3.5
  0
CIRCLE
  5
AE
330
3A4
100
AcDbEntity
  8
PATTERN_FILL
  6
Continuous
 62
     7
100
AcDbCircle
 10
-469.8523763549834
 20
-142.2101705863079
 30
0.0
 40
3.5
  0
CIRCLE
  5
AF
330
3A4
100
AcDbEntity
  8
PATTERN_FILL
  6
Continuous
 62
     7
100
AcDbCircle
 10
-479.8523763549834
 20
-142.2101705863079
 30
0.0
 40
3.5
  0
ARC
  5
B0
330
3A4
100
AcDbEntity
  8
PATTERN_FILL
  6
Continuous
 62
     7
100
AcDbCircle
 10
-309.8523763549833
 20
-152.210170586308
 30
0.0
 40
3.499999999999985
100
AcDbArc
 50
60.44132884148882
 51
355.4173506870792
  0
CIRCLE
  5
B1
330
3A4
100
AcDbEntity
  8
PATTERN_FILL
  6
Continuous
 62
     7
100
AcDbCircle
 10
-319.8523763549835
 20
-152.2101705863079
 30
0.0
 40
3.5
  0
CIRCLE
  5
B2
330
3A4
100
AcDbEntity
  8
PATTERN_FILL
  6
Continuous
 62
     7
100
AcDbCircle
 10
-329.8523763549834
 20
-152.2101705863079
 30
0.0
 40
3.5
  0
CIRCLE
  5
B3
330
3A4
100
AcDbEntity
  8
PATTERN_FILL
  6
Continuous
 62
     7
100
AcDbCircle
 10
-339.8523763549834
 20
-152.2101705863079
 30
0.0
 40
3.5
  0
CIRCLE
  5
B4
330
3A4
100
AcDbEntity
  8
PATTERN_FILL
  6
Continuous
 62
     7
100
AcDbCircle
 10
-349.8523763549834
 20
-152.2101705863079
 30
0.0
 40
3.5
  0
CIRCLE
  5
B5
330
3A4
100
AcDbEntity
  8
PATTERN_FILL
  6
Continuous
 62
     7
100
AcDbCircle
 10
-359.8523763549835
 20
-152.2101705863079
 30
0.0
 40
3.5
  0
CIRCLE
  5
B6
330
3A4
100
AcDbEntity
  8
PATTERN_FILL
  6
Continuous
 62
     7
100
AcDbCircle
 10
-369.8523763549835
 20
-152.2101705863079
 30
0.0
 40
3.5
  0
CIRCLE
  5
B7
330
3A4
100
AcDbEntity
  8
PATTERN_FILL
  6
Continuous
 62
     7
100
AcDbCircle
 10
-379.8523763549834
 20
-152.2101705863079
 30
0.0
 40
3.5
  0
CIRCLE
  5
B8
330
3A4
100
AcDbEntity
  8
PATTERN_FILL
  6
Continuous
 62
     7
100
AcDbCircle
 10
-389.8523763549834
 20
-152.2101705863079
 30
0.0
 40
3.5
  0
CIRCLE
  5
B9
330
3A4
100
AcDbEntity
  8
PATTERN_FILL
  6
Continuous
 62
     7
100
AcDbCircle
 10
-399.8523763549835
 20
-152.2101705863079
 30
0.0
 40
3.5
  0
CIRCLE
  5
BA
330
3A4
100
AcDbEntity
  8
PATTERN_FILL
  6
Continuous
 62
     7
100
AcDbCircle
 10
-409.8523763549834
 20
-152.2101705863079
 30
0.0
 40
3.5
  0
CIRCLE
  5
BB
330
3A4
100
AcDbEntity
  8
PATTERN_FILL
  6
Continuous
 62
     7
100
AcDbCircle
 10
-419.8523763549834
 20
-152.2101705863079
 30
0.0
 40
3.5
  0
CIRCLE
  5
BC
330
3A4
100
AcDbEntity
  8
PATTERN_FILL
  6
Continuous
 62
     7
100
AcDbCircle
 10
-429.8523763549834
 20
-152.2101705863079
 30
0.0
 40
3.5
  0
CIRCLE
  5
BD
330
3A4
100
AcDbEntity
  8
PATTERN_FILL
  6
Continuous
 62
     7
100
AcDbCircle
 10
-439.8523763549834
 20
-152.2101705863079
 30
0.0
 40
3.5
  0
CIRCLE
  5
BE
330
3A4
100
AcDbEntity
  8
PATTERN_FILL
  6
Continuous
 62
     7
100
AcDbCircle
 10
-449.8523763549834
 20
-152.2101705863079
 30
0.0
 40
3.5
  0
CIRCLE
  5
BF
330
3A4
100
AcDbEntity
  8
PATTERN_FILL
  6
Continuous
 62
     7
100
AcDbCircle
 10
-459.8523763549834
 20
-152.2101705863079
 30
0.0
 40
3.5
  0
CIRCLE
  5
C0
330
3A4
100
AcDbEntity
  8
PATTERN_FILL
  6
Continuous
 62
     7
100
AcDbCircle
 10
-469.8523763549834
 20
-152.2101705863079
 30
0.0
 40
3.5
  0
CIRCLE
  5
C1
330
3A4
100
AcDbEntity
  8
PATTERN_FILL
  6
Continuous
 62
     7
100
AcDbCircle
 10
-479.8523763549834
 20
-152.2101705863079
 30
0.0
 40
3.5
  0
ARC
  5
C2
330
3A4
100
AcDbEntity
  8
PATTERN_FILL
  6
Continuous
 62
     7
100
AcDbCircle
 10
-489.8523763549836
 20
-152.2101705863081
 30
0.0
 40
3.499999999999862
100
AcDbArc
 50
175.0609701443913
 51
128.9246406792121
  0
ARC
  5
C3
330
3A4
100
AcDbEntity
  8
PATTERN_FILL
  6
Continuous
 62
     7
100
AcDbCircle
 10
-299.8523763549835
 20
-162.2101705863079
 30
0.0
 40
3.499999999999988
100
AcDbArc
 50
147.0953888262876
 51
254.2517312454088
  0
CIRCLE
  5
C4
330
3A4
100
AcDbEntity
  8
PATTERN_FILL
  6
Continuous
 62
     7
100
AcDbCircle
 10
-309.8523763549835
 20
-162.2101705863079
 30
0.0
 40
3.5
  0
CIRCLE
  5
C5
330
3A4
100
AcDbEntity
  8
PATTERN_FILL
  6
Continuous
 62
     7
100
AcDbCircle
 10
-319.8523763549835
 20
-162.2101705863079
 30
0.0
 40
3.5
  0
CIRCLE
  5
C6
330
3A4
100
AcDbEntity
  8
PATTERN_FILL
  6
Continuous
 62
     7
100
AcDbCircle
 10
-329.8523763549834
 20
-162.2101705863079
 30
0.0
 40
3.5
  0
CIRCLE
  5
C7
330
3A4
100
AcDbEntity
  8
PATTERN_FILL
  6
Continuous
 62
     7
100
AcDbCircle
 10
-339.8523763549834
 20
-162.2101705863079
 30
0.0
 40
3.5
  0
CIRCLE
  5
C8
330
3A4
100
AcDbEntity
  8
PATTERN_FILL
  6
Continuous
 62
     7
100
AcDbCircle
 10
-349.8523763549834
 20
-162.2101705863079
 30
0.0
 40
3.5
  0
CIRCLE
  5
C9
330
3A4
100
AcDbEntity
  8
PATTERN_FILL
  6
Continuous
 62
     7
100
AcDbCircle
 10
-359.8523763549835
 20
-162.2101705863079
 30
0.0
 40
3.5
  0
CIRCLE
  5
CA
330
3A4
100
AcDbEntity
  8
PATTERN_FILL
  6
Continuous
 62
     7
100
AcDbCircle
 10
-369.8523763549835
 20
-162.2101705863079
 30
0.0
 40
3.5
  0
CIRCLE
  5
CB
330
3A4
100
AcDbEntity
  8
PATTERN_FILL
  6
Continuous
 62
     7
100
AcDbCircle
 10
-379.8523763549834
 20
-162.2101705863079
 30
0.0
 40
3.5
  0
CIRCLE
  5
CC
330
3A4
100
AcDbEntity
  8
PATTERN_FILL
  6
Continuous
 62
     7
100
AcDbCircle
 10
-389.8523763549834
 20
-162.2101705863079
 30
0.0
 40
3.5
  0
CIRCLE
  5
CD
330
3A4
100
AcDbEntity
  8
PATTERN_FILL
  6
Continuous
 62
     7
100
AcDbCircle
 10
-399.8523763549835
 20
-162.2101705863079
 30
0.0
 40
3.5
  0
CIRCLE
  5
CE
330
3A4
100
AcDbEntity
  8
PATTERN_FILL
  6
Continuous
 62
     7
100
AcDbCircle
 10
-409.8523763549834
 20
-162.2101705863079
 30
0.0
 40
3.5
  0
CIRCLE
  5
CF
330
3A4
100
AcDbEntity
  8
PATTERN_FILL
  6
Continuous
 62
     7
100
AcDbCircle
 10
-419.8523763549834
 20
-162.2101705863079
 30
0.0
 40
3.5
  0
CIRCLE
  5
D0
330
3A4
100
AcDbEntity
  8
PATTERN_FILL
  6
Continuous
 62
     7
100
AcDbCircle
 10
-429.8523763549834
 20
-162.2101705863079
 30
0.0
 40
3.5
  0
CIRCLE
  5
D1
330
3A4
100
AcDbEntity
  8
PATTERN_FILL
  6
Continuous
 62
     7
100
AcDbCircle
 10
-439.8523763549834
 20
-162.2101705863079
 30
0.0
 40
3.5
  0
CIRCLE
  5
D2
330
3A4
100
AcDbEntity
  8
PATTERN_FILL
  6
Continuous
 62
     7
100
AcDbCircle
 10
-449.8523763549834
 20
-162.2101705863079
 30
0.0
 40
3.5
  0
CIRCLE
  5
D3
330
3A4
100
AcDbEntity
  8
PATTERN_FILL
  6
Continuous
 62
     7
100
AcDbCircle
 10
-459.8523763549834
 20
-162.2101705863079
 30
0.0
 40
3.5
  0
CIRCLE
  5
D4
330
3A4
100
AcDbEntity
  8
PATTERN_FILL
  6
Continuous
 62
     7
100
AcDbCircle
 10
-469.8523763549834
 20
-162.2101705863079
 30
0.0
 40
3.5
  0
CIRCLE
  5
D5
330
3A4
100
AcDbEntity
  8
PATTERN_FILL
  6
Continuous
 62
     7
100
AcDbCircle
 10
-479.8523763549834
 20
-162.2101705863079
 30
0.0
 40
3.5
  0
CIRCLE
  5
D6
330
3A4
100
AcDbEntity
  8
PATTERN_FILL
  6
Continuous
 62
     7
100
AcDbCircle
 10
-489.8523763549834
 20
-162.2101705863079
 30
0.0
 40
3.5
  0
ARC
  5
D7
330
3A4
100
AcDbEntity
  8
PATTERN_FILL
  6
Continuous
 62
     7
100
AcDbCircle
 10
-499.8523763549834
 20
-162.2101705863079
 30
0.0
 40
3.500000000000019
100
AcDbArc
 50
279.2836829639155
 51
38.18949514782318
  0
ARC
  5
D8
330
3A4
100
AcDbEntity
  8
PATTERN_FILL
  6
Continuous
 62
     7
100
AcDbCircle
 10
-299.8523763549835
 20
-172.2101705863079
 30
0.0
 40
3.499999999999943
100
AcDbArc
 50
88.6551128856462
 51
302.362349096927
  0
CIRCLE
  5
D9
330
3A4
100
AcDbEntity
  8
PATTERN_FILL
  6
Continuous
 62
     7
100
AcDbCircle
 10
-309.8523763549835
 20
-172.210170586308
 30
0.0
 40
3.5
  0
CIRCLE
  5
DA
330
3A4
100
AcDbEntity
  8
PATTERN_FILL
  6
Continuous
 62
     7
100
AcDbCircle
 10
-319.8523763549835
 20
-172.210170586308
 30
0.0
 40
3.5
  0
CIRCLE
  5
DB
330
3A4
100
AcDbEntity
  8
PATTERN_FILL
  6
Continuous
 62
     7
100
AcDbCircle
 10
-329.8523763549834
 20
-172.210170586308
 30
0.0
 40
3.5
  0
CIRCLE
  5
DC
330
3A4
100
AcDbEntity
  8
PATTERN_FILL
  6
Continuous
 62
     7
100
AcDbCircle
 10
-339.8523763549834
 20
-172.210170586308
 30
0.0
 40
3.5
  0
CIRCLE
  5
DD
330
3A4
100
AcDbEntity
  8
PATTERN_FILL
  6
Continuous
 62
     7
100
AcDbCircle
 10
-349.8523763549834
 20
-172.210170586308
 30
0.0
 40
3.5
  0
CIRCLE
  5
DE
330
3A4
100
AcDbEntity
  8
PATTERN_FILL
  6
Continuous
 62
     7
100
AcDbCircle
 10
-359.8523763549835
 20
-172.210170586308
 30
0.0
 40
3.5
  0
CIRCLE
  5
DF
330
3A4
100
AcDbEntity
  8
PATTERN_FILL
  6
Continuous
 62
     7
100
AcDbCircle
 10
-369.8523763549835
 20
-172.210170586308
 30
0.0
 40
3.5
  0
CIRCLE
  5
E0
330
3A4
100
AcDbEntity
  8
PATTERN_FILL
  6
Continuous
 62
     7
100
AcDbCircle
 10
-379.8523763549834
 20
-172.210170586308
 30
0.0
 40
3.5
  0
CIRCLE
  5
E1
330
3A4
100
AcDbEntity
  8
PATTERN_FILL
  6
Continuous
 62
     7
100
AcDbCircle
 10
-389.8523763549834
 20
-172.210170586308
 30
0.0
 40
3.5
  0
CIRCLE
  5
E2
330
3A4
100
AcDbEntity
  8
PATTERN_FILL
  6
Continuous
 62
     7
100
AcDbCircle
 10
-399.8523763549835
 20
-172.210170586308
 30
0.0
 40
3.5
  0
CIRCLE
  5
E3
330
3A4
100
AcDbEntity
  8
PATTERN_FILL
  6
Continuous
 62
     7
100
AcDbCircle
 10
-409.8523763549834
 20
-172.210170586308
 30
0.0
 40
3.5
  0
CIRCLE
  5
E4
330
3A4
100
AcDbEntity
  8
PATTERN_FILL
  6
Continuous
 62
     7
100
AcDbCircle
 10
-419.8523763549834
 20
-172.210170586308
 30
0.0
 40
3.5
  0
CIRCLE
  5
E5
330
3A4
100
AcDbEntity
  8
PATTERN_FILL
  6
Continuous
 62
     7
100
AcDbCircle
 10
-429.8523763549834
 20
-172.210170586308
 30
0.0
 40
3.5
  0
CIRCLE
  5
E6
330
3A4
100
AcDbEntity
  8
PATTERN_FILL
  6
Continuous
 62
     7
100
AcDbCircle
 10
-439.8523763549834
 20
-172.210170586308
 30
0.0
 40
3.5
  0
CIRCLE
  5
E7
330
3A4
100
AcDbEntity
  8
PATTERN_FILL
  6
Continuous
 62
     7
100
AcDbCircle
 10
-449.8523763549834
 20
-172.210170586308
 30
0.0
 40
3.5
  0
CIRCLE
  5
E8
330
3A4
100
AcDbEntity
  8
PATTERN_FILL
  6
Continuous
 62
     7
100
AcDbCircle
 10
-459.8523763549834
 20
-172.210170586308
 30
0.0
 40
3.5
  0
CIRCLE
  5
E9
330
3A4
100
AcDbEntity
  8
PATTERN_FILL
  6
Continuous
 62
     7
100
AcDbCircle
 10
-469.8523763549834
 20
-172.210170586308
 30
0.0
 40
3.5
  0
CIRCLE
  5
EA
330
3A4
100
AcDbEntity
  8
PATTERN_FILL
  6
Continuous
 62
     7
100
AcDbCircle
 10
-479.8523763549834
 20
-172.210170586308
 30
0.0
 40
3.5
  0
CIRCLE
  5
EB
330
3A4
100
AcDbEntity
  8
PATTERN_FILL
  6
Continuous
 62
     7
100
AcDbCircle
 10
-489.8523763549834
 20
-172.210170586308
 30
0.0
 40
3.5
  0
ARC
  5
EC
330
3A4
100
AcDbEntity
  8
PATTERN_FILL
  6
Continuous
 62
     7
100
AcDbCircle
 10
-499.8523763549837
 20
-172.210170586308
 30
0.0
 40
3.499999999999865
100
AcDbArc
 50
306.7704638906925
 51
74.79225234539288
  0
ARC
  5
ED
330
3A4
100
AcDbEntity
  8
PATTERN_FILL
  6
Continuous
 62
     7
100
AcDbCircle
 10
-299.8523763549835
 20
-182.210170586308
 30
0.0
 40
3.499999999999982
100
AcDbArc
 50
30.6169185293778
 51
349.5285350746883
  0
CIRCLE
  5
EE
330
3A4
100
AcDbEntity
  8
PATTERN_FILL
  6
Continuous
 62
     7
100
AcDbCircle
 10
-309.8523763549835
 20
-182.210170586308
 30
0.0
 40
3.5
  0
CIRCLE
  5
EF
330
3A4
100
AcDbEntity
  8
PATTERN_FILL
  6
Continuous
 62
     7
100
AcDbCircle
 10
-319.8523763549835
 20
-182.210170586308
 30
0.0
 40
3.5
  0
CIRCLE
  5
F0
330
3A4
100
AcDbEntity
  8
PATTERN_FILL
  6
Continuous
 62
     7
100
AcDbCircle
 10
-329.8523763549834
 20
-182.210170586308
 30
0.0
 40
3.5
  0
CIRCLE
  5
F1
330
3A4
100
AcDbEntity
  8
PATTERN_FILL
  6
Continuous
 62
     7
100
AcDbCircle
 10
-339.8523763549834
 20
-182.210170586308
 30
0.0
 40
3.5
  0
CIRCLE
  5
F2
330
3A4
100
AcDbEntity
  8
PATTERN_FILL
  6
Continuous
 62
     7
100
AcDbCircle
 10
-349.8523763549834
 20
-182.210170586308
 30
0.0
 40
3.5
  0
CIRCLE
  5
F3
330
3A4
100
AcDbEntity
  8
PATTERN_FILL
  6
Continuous
 62
     7
100
AcDbCircle
 10
-359.8523763549835
 20
-182.210170586308
 30
0.0
 40
3.5
  0
CIRCLE
  5
F4
330
3A4
100
AcDbEntity
  8
PATTERN_FILL
  6
Continuous
 62
     7
100
AcDbCircle
 10
-369.8523763549835
 20
-182.210170586308
 30
0.0
 40
3.5
  0
CIRCLE
  5
F5
330
3A4
100
AcDbEntity
  8
PATTERN_FILL
  6
Continuous
 62
     7
100
AcDbCircle
 10
-379.8523763549834
 20
-182.210170586308
 30
0.0
 40
3.5
  0
CIRCLE
  5
F6
330
3A4
100
AcDbEntity
  8
PATTERN_FILL
  6
Continuous
 62
     7
100
AcDbCircle
 10
-389.8523763549834
 20
-182.210170586308
 30
0.0
 40
3.5
  0
CIRCLE
  5
F7
330
3A4
100
AcDbEntity
  8
PATTERN_FILL
  6
Continuous
 62
     7
100
AcDbCircle
 10
-399.8523763549835
 20
-182.210170586308
 30
0.0
 40
3.5
  0
CIRCLE
  5
F8
330
3A4
100
AcDbEntity
  8
PATTERN_FILL
  6
Continuous
 62
     7
100
AcDbCircle
 10
-409.8523763549834
 20
-182.210170586308
 30
0.0
 40
3.5
  0
CIRCLE
  5
F9
330
3A4
100
AcDbEntity
  8
PATTERN_FILL
  6
Continuous
 62
     7
100
AcDbCircle
 10
-419.8523763549834
 20
-182.210170586308
 30
0.0
 40
3.5
  0
CIRCLE
  5
FA
330
3A4
100
AcDbEntity
  8
PATTERN_FILL
  6
Continuous
 62
     7
100
AcDbCircle
 10
-429.8523763549834
 20
-182.210170586308
 30
0.0
 40
3.5
  0
CIRCLE
  5
FB
330
3A4
100
AcDbEntity
  8
PATTERN_FILL
  6
Continuous
 62
     7
100
AcDbCircle
 10
-439.8523763549834
 20
-182.210170586308
 30
0.0
 40
3.5
  0
CIRCLE
  5
FC
330
3A4
100
AcDbEntity
  8
PATTERN_FILL
  6
Continuous
 62
     7
100
AcDbCircle
 10
-449.8523763549834
 20
-182.210170586308
 30
0.0
 40
3.5
  0
CIRCLE
  5
FD
330
3A4
100
AcDbEntity
  8
PATTERN_FILL
  6
Continuous
 62
     7
100
AcDbCircle
 10
-459.8523763549834
 20
-182.210170586308
 30
0.0
 40
3.5
  0
CIRCLE
  5
FE
330
3A4
100
AcDbEntity
  8
PATTERN_FILL
  6
Continuous
 62
     7
100
AcDbCircle
 10
-469.8523763549834
 20
-182.210170586308
 30
0.0
 40
3.5
  0
CIRCLE
  5
FF
330
3A4
100
AcDbEntity
  8
PATTERN_FILL
  6
Continuous
 62
     7
100
AcDbCircle
 10
-479.8523763549834
 20
-182.210170586308
 30
0.0
 40
3.5
  0
CIRCLE
  5
100
330
3A4
100
AcDbEntity
  8
PATTERN_FILL
  6
Continuous
 62
     7
100
AcDbCircle
 10
-489.8523763549834
 20
-182.210170586308
 30
0.0
 40
3.5
  0
CIRCLE
  5
101
330
3A4
100
AcDbEntity
  8
PATTERN_FILL
  6
Continuous
 62
     7
100
AcDbCircle
 10
-299.8523763549835
 20
-192.2101705863079
 30
0.0
 40
3.499999999999602
  0
CIRCLE
  5
102
330
3A4
100
AcDbEntity
  8
PATTERN_FILL
  6
Continuous
 62
     7
100
AcDbCircle
 10
-309.8523763549835
 20
-192.2101705863079
 30
0.0
 40
3.499999999999602
  0
CIRCLE
  5
103
330
3A4
100
AcDbEntity
  8
PATTERN_FILL
  6
Continuous
 62
     7
100
AcDbCircle
 10
-319.8523763549835
 20
-192.2101705863079
 30
0.0
 40
3.499999999999602
  0
CIRCLE
  5
104
330
3A4
100
AcDbEntity
  8
PATTERN_FILL
  6
Continuous
 62
     7
100
AcDbCircle
 10
-329.8523763549834
 20
-192.2101705863079
 30
0.0
 40
3.499999999999602
  0
CIRCLE
  5
105
330
3A4
100
AcDbEntity
  8
PATTERN_FILL
  6
Continuous
 62
     7
100
AcDbCircle
 10
-339.8523763549834
 20
-192.2101705863079
 30
0.0
 40
3.499999999999602
  0
CIRCLE
  5
106
330
3A4
100
AcDbEntity
  8
PATTERN_FILL
  6
Continuous
 62
     7
100
AcDbCircle
 10
-349.8523763549834
 20
-192.2101705863079
 30
0.0
 40
3.499999999999602
  0
CIRCLE
  5
107
330
3A4
100
AcDbEntity
  8
PATTERN_FILL
  6
Continuous
 62
     7
100
AcDbCircle
 10
-359.8523763549835
 20
-192.2101705863079
 30
0.0
 40
3.499999999999602
  0
CIRCLE
  5
108
330
3A4
100
AcDbEntity
  8
PATTERN_FILL
  6
Continuous
 62
     7
100
AcDbCircle
 10
-369.8523763549835
 20
-192.2101705863079
 30
0.0
 40
3.499999999999602
  0
CIRCLE
  5
109
330
3A4
100
AcDbEntity
  8
PATTERN_FILL
  6
Continuous
 62
     7
100
AcDbCircle
 10
-379.8523763549834
 20
-192.2101705863079
 30
0.0
 40
3.499999999999602
  0
CIRCLE
  5
10A
330
3A4
100
AcDbEntity
  8
PATTERN_FILL
  6
Continuous
 62
     7
100
AcDbCircle
 10
-389.8523763549834
 20
-192.2101705863079
 30
0.0
 40
3.499999999999602
  0
ARC
  5
10B
330
3A4
100
AcDbEntity
  8
PATTERN_FILL
  6
Continuous
 62
     7
100
AcDbCircle
 10
-399.8523763549837
 20
-192.2101705863076
 30
0.0
 40
3.499999999999928
100
AcDbArc
 50
343.6403650778351
 51
196.3596349221656
  0
CIRCLE
  5
10C
330
3A4
100
AcDbEntity
  8
PATTERN_FILL
  6
Continuous
 62
     7
100
AcDbCircle
 10
-409.8523763549834
 20
-192.2101705863079
 30
0.0
 40
3.499999999999602
  0
CIRCLE
  5
10D
330
3A4
100
AcDbEntity
  8
PATTERN_FILL
  6
Continuous
 62
     7
100
AcDbCircle
 10
-419.8523763549834
 20
-192.2101705863079
 30
0.0
 40
3.499999999999602
  0
CIRCLE
  5
10E
330
3A4
100
AcDbEntity
  8
PATTERN_FILL
  6
Continuous
 62
     7
100
AcDbCircle
 10
-429.8523763549834
 20
-192.2101705863079
 30
0.0
 40
3.499999999999602
  0
CIRCLE
  5
10F
330
3A4
100
AcDbEntity
  8
PATTERN_FILL
  6
Continuous
 62
     7
100
AcDbCircle
 10
-439.8523763549834
 20
-192.2101705863079
 30
0.0
 40
3.499999999999602
  0
CIRCLE
  5
110
330
3A4
100
AcDbEntity
  8
PATTERN_FILL
  6
Continuous
 62
     7
100
AcDbCircle
 10
-449.8523763549834
 20
-192.2101705863079
 30
0.0
 40
3.499999999999602
  0
CIRCLE
  5
111
330
3A4
100
AcDbEntity
  8
PATTERN_FILL
  6
Continuous
 62
     7
100
AcDbCircle
 10
-459.8523763549834
 20
-192.2101705863079
 30
0.0
 40
3.499999999999602
  0
CIRCLE
  5
112
330
3A4
100
AcDbEntity
  8
PATTERN_FILL
  6
Continuous
 62
     7
100
AcDbCircle
 10
-469.8523763549834
 20
-192.2101705863079
 30
0.0
 40
3.499999999999602
  0
CIRCLE
  5
113
330
3A4
100
AcDbEntity
  8
PATTERN_FILL
  6
Continuous
 62
     7
100
AcDbCircle
 10
-479.8523763549834
 20
-192.2101705863079
 30
0.0
 40
3.499999999999602
  0
ARC
  5
114
330
3A4
100
AcDbEntity
  8
PATTERN_FILL
  6
Continuous
 62
     7
100
AcDbCircle
 10
-489.8523763549834
 20
-192.2101705863079
 30
0.0
 40
3.499999999999598
100
AcDbArc
 50
291.6304448781341
 51
131.3615778111265
  0
CIRCLE
  5
115
330
3A4
100
AcDbEntity
  8
PATTERN_FILL
  6
Continuous
 62
     7
100
AcDbCircle
 10
-299.8523763549835
 20
-202.2101705863065
 30
0.0
 40
3.5
  0
CIRCLE
  5
116
330
3A4
100
AcDbEntity
  8
PATTERN_FILL
  6
Continuous
 62
     7
100
AcDbCircle
 10
-309.8523763549835
 20
-202.2101705863065
 30
0.0
 40
3.5
  0
CIRCLE
  5
117
330
3A4
100
AcDbEntity
  8
PATTERN_FILL
  6
Continuous
 62
     7
100
AcDbCircle
 10
-319.8523763549835
 20
-202.2101705863065
 30
0.0
 40
3.5
  0
CIRCLE
  5
118
330
3A4
100
AcDbEntity
  8
PATTERN_FILL
  6
Continuous
 62
     7
100
AcDbCircle
 10
-329.8523763549834
 20
-202.2101705863065
 30
0.0
 40
3.5
  0
CIRCLE
  5
119
330
3A4
100
AcDbEntity
  8
PATTERN_FILL
  6
Continuous
 62
     7
100
AcDbCircle
 10
-339.8523763549834
 20
-202.2101705863065
 30
0.0
 40
3.5
  0
CIRCLE
  5
11A
330
3A4
100
AcDbEntity
  8
PATTERN_FILL
  6
Continuous
 62
     7
100
AcDbCircle
 10
-349.8523763549834
 20
-202.2101705863065
 30
0.0
 40
3.5
  0
CIRCLE
  5
11B
330
3A4
100
AcDbEntity
  8
PATTERN_FILL
  6
Continuous
 62
     7
100
AcDbCircle
 10
-359.8523763549835
 20
-202.2101705863065
 30
0.0
 40
3.5
  0
CIRCLE
  5
11C
330
3A4
100
AcDbEntity
  8
PATTERN_FILL
  6
Continuous
 62
     7
100
AcDbCircle
 10
-369.8523763549835
 20
-202.2101705863065
 30
0.0
 40
3.5
  0
CIRCLE
  5
11D
330
3A4
100
AcDbEntity
  8
PATTERN_FILL
  6
Continuous
 62
     7
100
AcDbCircle
 10
-379.8523763549834
 20
-202.2101705863065
 30
0.0
 40
3.5
  0
CIRCLE
  5
11E
330
3A4
100
AcDbEntity
  8
PATTERN_FILL
  6
Continuous
 62
     7
100
AcDbCircle
 10
-389.8523763549834
 20
-202.2101705863065
 30
0.0
 40
3.5
  0
CIRCLE
  5
11F
330
3A4
100
AcDbEntity
  8
PATTERN_FILL
  6
Continuous
 62
     7
100
AcDbCircle
 10
-409.8523763549834
 20
-202.2101705863065
 30
0.0
 40
3.5
  0
CIRCLE
  5
120
330
3A4
100
AcDbEntity
  8
PATTERN_FILL
  6
Continuous
 62
     7
100
AcDbCircle
 10
-419.8523763549834
 20
-202.2101705863065
 30
0.0
 40
3.5
  0
CIRCLE
  5
121
330
3A4
100
AcDbEntity
  8
PATTERN_FILL
  6
Continuous
 62
     7
100
AcDbCircle
 10
-429.8523763549834
 20
-202.2101705863065
 30
0.0
 40
3.5
  0
CIRCLE
  5
122
330
3A4
100
AcDbEntity
  8
PATTERN_FILL
  6
Continuous
 62
     7
100
AcDbCircle
 10
-439.8523763549834
 20
-202.2101705863065
 30
0.0
 40
3.5
  0
CIRCLE
  5
123
330
3A4
100
AcDbEntity
  8
PATTERN_FILL
  6
Continuous
 62
     7
100
AcDbCircle
 10
-449.8523763549834
 20
-202.2101705863065
 30
0.0
 40
3.5
  0
CIRCLE
  5
124
330
3A4
100
AcDbEntity
  8
PATTERN_FILL
  6
Continuous
 62
     7
100
AcDbCircle
 10
-459.8523763549834
 20
-202.2101705863065
 30
0.0
 40
3.5
  0
CIRCLE
  5
125
330
3A4
100
AcDbEntity
  8
PATTERN_FILL
  6
Continuous
 62
     7
100
AcDbCircle
 10
-469.8523763549834
 20
-202.2101705863065
 30
0.0
 40
3.5
  0
ARC
  5
126
330
3A4
100
AcDbEntity
  8
PATTERN_FILL
  6
Continuous
 62
     7
100
AcDbCircle
 10
-479.8523763549834
 20
-202.2101705863065
 30
0.0
 40
3.499999999999968
100
AcDbArc
 50
273.3676758965907
 51
176.5098409817641
  0
CIRCLE
  5
127
330
3A4
100
AcDbEntity
  8
PATTERN_FILL
  6
Continuous
 62
     7
100
AcDbCircle
 10
-299.8523763549835
 20
-212.2101705863066
 30
0.0
 40
3.5
  0
CIRCLE
  5
128
330
3A4
100
AcDbEntity
  8
PATTERN_FILL
  6
Continuous
 62
     7
100
AcDbCircle
 10
-309.8523763549835
 20
-212.2101705863066
 30
0.0
 40
3.5
  0
CIRCLE
  5
129
330
3A4
100
AcDbEntity
  8
PATTERN_FILL
  6
Continuous
 62
     7
100
AcDbCircle
 10
-319.8523763549835
 20
-212.2101705863066
 30
0.0
 40
3.5
  0
CIRCLE
  5
12A
330
3A4
100
AcDbEntity
  8
PATTERN_FILL
  6
Continuous
 62
     7
100
AcDbCircle
 10
-329.8523763549834
 20
-212.2101705863066
 30
0.0
 40
3.5
  0
ARC
  5
12B
330
3A4
100
AcDbEntity
  8
PATTERN_FILL
  6
Continuous
 62
     7
100
AcDbCircle
 10
-339.8523763549834
 20
-212.2101705863066
 30
0.0
 40
3.500000000000004
100
AcDbArc
 50
320.5497841001996
 51
185.5293995184908
  0
ARC
  5
12C
330
3A4
100
AcDbEntity
  8
PATTERN_FILL
  6
Continuous
 62
     7
100
AcDbCircle
 10
-349.8523763549834
 20
-212.2101705863066
 30
0.0
 40
3.500000000000016
100
AcDbArc
 50
7.428322784457493
 51
148.4111565636613
  0
ARC
  5
12D
330
3A4
100
AcDbEntity
  8
PATTERN_FILL
  6
Continuous
 62
     7
100
AcDbCircle
 10
-399.8523763549844
 20
-212.2101705863075
 30
0.0
 40
3.499999999999004
100
AcDbArc
 50
21.95523031596442
 51
185.1174478345711
  0
ARC
  5
12E
330
3A4
100
AcDbEntity
  8
PATTERN_FILL
  6
Continuous
 62
     7
100
AcDbCircle
 10
-409.8523763549834
 20
-212.2101705863066
 30
0.0
 40
3.499999999999992
100
AcDbArc
 50
339.0591815217308
 51
255.3867123549756
  0
CIRCLE
  5
12F
330
3A4
100
AcDbEntity
  8
PATTERN_FILL
  6
Continuous
 62
     7
100
AcDbCircle
 10
-419.8523763549834
 20
-212.2101705863066
 30
0.0
 40
3.5
  0
CIRCLE
  5
130
330
3A4
100
AcDbEntity
  8
PATTERN_FILL
  6
Continuous
 62
     7
100
AcDbCircle
 10
-429.8523763549834
 20
-212.2101705863066
 30
0.0
 40
3.5
  0
CIRCLE
  5
131
330
3A4
100
AcDbEntity
  8
PATTERN_FILL
  6
Continuous
 62
     7
100
AcDbCircle
 10
-439.8523763549834
 20
-212.2101705863066
 30
0.0
 40
3.5
  0
CIRCLE
  5
132
330
3A4
100
AcDbEntity
  8
PATTERN_FILL
  6
Continuous
 62
     7
100
AcDbCircle
 10
-449.8523763549834
 20
-212.2101705863066
 30
0.0
 40
3.5
  0
CIRCLE
  5
133
330
3A4
100
AcDbEntity
  8
PATTERN_FILL
  6
Continuous
 62
     7
100
AcDbCircle
 10
-459.8523763549834
 20
-212.2101705863066
 30
0.0
 40
3.5
  0
ARC
  5
134
330
3A4
100
AcDbEntity
  8
PATTERN_FILL
  6
Continuous
 62
     7
100
AcDbCircle
 10
-469.8523763549834
 20
-212.2101705863066
 30
0.0
 40
3.49999999999998
100
AcDbArc
 50
318.0286834573495
 51
158.7475729672885
  0
ARC
  5
135
330
3A4
100
AcDbEntity
  8
PATTERN_FILL
  6
Continuous
 62
     7
100
AcDbCircle
 10
-299.8523763549835
 20
-222.2101705863066
 30
0.0
 40
3.500000000000003
100
AcDbArc
 50
34.47471786347652
 51
300.5165824331093
  0
CIRCLE
  5
136
330
3A4
100
AcDbEntity
  8
PATTERN_FILL
  6
Continuous
 62
     7
100
AcDbCircle
 10
-309.8523763549835
 20
-222.2101705863066
 30
0.0
 40
3.5
  0
ARC
  5
137
330
3A4
100
AcDbEntity
  8
PATTERN_FILL
  6
Continuous
 62
     7
100
AcDbCircle
 10
-319.8523763549835
 20
-222.2101705863066
 30
0.0
 40
3.499999999999977
100
AcDbArc
 50
335.4316346418916
 51
148.2214999465288
  0
ARC
  5
138
330
3A4
100
AcDbEntity
  8
PATTERN_FILL
  6
Continuous
 62
     7
100
AcDbCircle
 10
-419.8523763549834
 20
-222.2101705863066
 30
0.0
 40
3.500000000000025
100
AcDbArc
 50
71.97670737439541
 51
140.7303592714783
  0
ARC
  5
139
330
3A4
100
AcDbEntity
  8
PATTERN_FILL
  6
Continuous
 62
     7
100
AcDbCircle
 10
-429.8523763549834
 20
-222.2101705863066
 30
0.0
 40
3.499999999999976
100
AcDbArc
 50
22.02180833277877
 51
172.9694275189087
  0
ARC
  5
13A
330
3A4
100
AcDbEntity
  8
PATTERN_FILL
  6
Continuous
 62
     7
100
AcDbCircle
 10
-439.8523763549834
 20
-222.2101705863066
 30
0.0
 40
3.500000000000032
100
AcDbArc
 50
4.478930914349927
 51
172.0516569789065
  0
ARC
  5
13B
330
3A4
100
AcDbEntity
  8
PATTERN_FILL
  6
Continuous
 62
     7
100
AcDbCircle
 10
-449.8523763549834
 20
-222.2101705863066
 30
0.0
 40
3.500000000000018
100
AcDbArc
 50
13.85647997214078
 51
144.3903492345387
  0
ARC
  5
13C
330
3A4
100
AcDbEntity
  8
PATTERN_FILL
  6
Continuous
 62
     7
100
AcDbCircle
 10
-299.8523763549832
 20
-232.2101705863066
 30
0.0
 40
3.499999999999934
100
AcDbArc
 50
76.39881962800159
 51
187.4917413805113
  0
LINE
  5
13D
330
3A4
100
AcDbEntity
  8
SPEC
  6
Continuous
 62
     7
100
AcDbLine
 10
-559.9999999999998
 20
1124.722705
 30
0.0
 11
625.0
 21
1124.722705
 31
0.0
  0
LINE
  5
13E
330
3A4
100
AcDbEntity
  8
SPEC
  6
Continuous
 62
     7
100
AcDbLine
 10
-559.9999999999998
 20
1094.722705
 30
0.0
 11
625.0
 21
1094.722705
 31
0.0
  0
LINE
  5
13F
330
3A4
100
AcDbEntity
  8
SPEC
  6
Continuous
 62
     7
100
AcDbLine
 10
-559.9999999999998
 20
974.7227050000001
 30
0.0
 11
625.0
 21
974.7227050000001
 31
0.0
  0
LINE
  5
140
330
3A4
100
AcDbEntity
  8
SPEC
  6
Continuous
 62
     7
100
AcDbLine
 10
-559.9999999999998
 20
1004.722705
 30
0.0
 11
625.0
 21
1004.722705
 31
0.0
  0
LINE
  5
141
330
3A4
100
AcDbEntity
  8
SPEC
  6
Continuous
 62
     7
100
AcDbLine
 10
-559.9999999999998
 20
1034.722705
 30
0.0
 11
625.0
 21
1034.722705
 31
0.0
  0
LINE
  5
142
330
3A4
100
AcDbEntity
  8
SPEC
  6
Continuous
 62
     7
100
AcDbLine
 10
-559.9999999999998
 20
944.722705
 30
0.0
 11
625.0
 21
944.722705
 31
0.0
  0
LINE
  5
143
330
3A4
100
AcDbEntity
  8
SPEC
  6
Continuous
 62
     7
100
AcDbLine
 10
-559.9999999999998
 20
884.7227049999998
 30
0.0
 11
625.0
 21
884.7227049999998
 31
0.0
  0
LINE
  5
144
330
3A4
100
AcDbEntity
  8
SPEC
  6
Continuous
 62
     7
100
AcDbLine
 10
-300.0
 20
914.7227049999999
 30
0.0
 11
625.0
 21
914.7227049999999
 31
0.0
  0
LINE
  5
145
330
3A4
100
AcDbEntity
  8
SPEC
  6
Continuous
 62
     7
100
AcDbLine
 10
-300.0
 20
854.7227049999998
 30
0.0
 11
625.0
 21
854.7227049999998
 31
0.0
  0
LINE
  5
146
330
3A4
100
AcDbEntity
  8
SPEC
  6
Continuous
 62
     7
100
AcDbLine
 10
-559.9999999999998
 20
824.7227049999997
 30
0.0
 11
625.0
 21
824.7227049999997
 31
0.0
  0
LINE
  5
147
330
3A4
100
AcDbEntity
  8
SPEC
  6
Continuous
 62
     7
100
AcDbLine
 10
-559.9999999999998
 20
1064.722705
 30
0.0
 11
625.0
 21
1064.722705
 31
0.0
  0
LINE
  5
148
330
3A4
100
AcDbEntity
  8
SPEC
  6
Continuous
 62
     7
100
AcDbLine
 10
-559.9999999999998
 20
764.7227049999997
 30
0.0
 11
625.0
 21
764.7227049999997
 31
0.0
  0
LINE
  5
149
330
3A4
100
AcDbEntity
  8
SPEC
  6
Continuous
 62
     7
100
AcDbLine
 10
-559.9999999999998
 20
704.7227049999998
 30
0.0
 11
625.0
 21
704.7227049999998
 31
0.0
  0
LINE
  5
14A
330
3A4
100
AcDbEntity
  8
SPEC
  6
Continuous
 62
     7
100
AcDbLine
 10
-559.9999999999998
 20
1124.722705
 30
0.0
 11
-559.9999999999998
 21
644.7227049999997
 31
0.0
  0
TEXT
  5
14B
330
3A4
100
AcDbEntity
  8
SPEC
 62
     7
100
AcDbText
 10
-549.9999999999999
 20
1135.868865
 30
0.0
 40
19.54609375
  1
仕様
 41
0.7
 11
-549.9999999999999
 21
1155.41495875
 31
0.0
100
AcDbText
 73
     3
  0
LINE
  5
14C
330
3A4
100
AcDbEntity
  8
SPEC
  6
Continuous
 62
     7
100
AcDbLine
 10
-237.5
 20
1124.722705
 30
0.0
 11
-237.5000000000001
 21
644.7227049999997
 31
0.0
  0
TEXT
  5
14D
330
3A4
100
AcDbEntity
  8
SPEC
 62
     7
100
AcDbText
 10
-552.8000000000002
 20
1101.026060022222
 30
0.0
 40
15.20249
  1
周波数レンジ(-10dB)
 41
0.7
 11
-552.8000000000002
 21
1116.228550022222
 31
0.0
100
AcDbText
 73
     3
  0
TEXT
  5
14E
330
3A4
100
AcDbEntity
  8
SPEC
 62
     7
100
AcDbText
 10
-230.3000000000001
 20
1101.026060022222
 30
0.0
 40
15.20249
  1
55Hz～20kHz
 41
0.7
 11
-230.3000000000001
 21
1116.228550022222
 31
0.0
100
AcDbText
 73
     3
  0
LINE
  5
14F
330
3A4
100
AcDbEntity
  8
SPEC
  6
Continuous
 62
     7
100
AcDbLine
 10
-559.9999999999998
 20
794.7227049999997
 30
0.0
 11
625.0
 21
794.7227049999997
 31
0.0
  0
LINE
  5
150
330
3A4
100
AcDbEntity
  8
SPEC
  6
Continuous
 62
     7
100
AcDbLine
 10
-559.9999999999998
 20
734.7227049999998
 30
0.0
 11
625.0
 21
734.7227049999998
 31
0.0
  0
TEXT
  5
151
330
3A4
100
AcDbEntity
  8
SPEC
 62
     7
100
AcDbText
 10
-552.8000000000002
 20
1011.026047222222
 30
0.0
 40
15.20251736111111
  1
感度
 41
0.7
 11
-552.8000000000002
 21
1026.228564583333
 31
0.0
100
AcDbText
 73
     3
  0
TEXT
  5
152
330
3A4
100
AcDbEntity
  8
SPEC
 62
     7
100
AcDbText
 10
-552.8000000000002
 20
921.0260472222222
 30
0.0
 40
15.20251736111111
  1
トランス・タップ
 41
0.7
 11
-552.8000000000002
 21
936.2285645833333
 31
0.0
100
AcDbText
 73
     3
  0
TEXT
  5
153
330
3A4
100
AcDbEntity
  8
SPEC
 62
     7
100
AcDbText
 10
-552.8000000000002
 20
861.0260472222222
 30
0.0
 40
15.20251736111111
  1
ドライバー構成
 41
0.7
 11
-552.8000000000002
 21
876.2285645833333
 31
0.0
100
AcDbText
 73
     3
  0
TEXT
  5
154
330
3A4
100
AcDbEntity
  8
SPEC
 62
     7
100
AcDbText
 10
-552.8000000000002
 20
1071.026047222222
 30
0.0
 40
15.20251736111111
  1
カバレージ角(1.5～10kHz平均)
 41
0.7
 11
-552.8000000000002
 21
1086.228564583333
 31
0.0
100
AcDbText
 73
     3
  0
TEXT
  5
155
330
3A4
100
AcDbEntity
  8
SPEC
 62
     7
100
AcDbText
 10
-552.8000000000002
 20
981.0260472222219
 30
0.0
 40
15.20251736111111
  1
最大音圧レベル
 41
0.7
 11
-552.8000000000002
 21
996.2285645833331
 31
0.0
100
AcDbText
 73
     3
  0
TEXT
  5
156
330
3A4
100
AcDbEntity
  8
SPEC
 62
     7
100
AcDbText
 10
-552.8000000000002
 20
771.0260472222222
 30
0.0
 40
15.20251736111111
  1
端子(入力/ループスルー)
 41
0.7
 11
-552.8000000000002
 21
786.2285645833333
 31
0.0
100
AcDbText
 73
     3
  0
TEXT
  5
157
330
3A4
100
AcDbEntity
  8
SPEC
 62
     7
100
AcDbText
 10
-552.8000000000002
 20
1041.026047222222
 30
0.0
 40
15.20251736111111
  1
許容入力(プログラム/ピンク)※
 41
0.7
 11
-552.8000000000002
 21
1056.228564583333
 31
0.0
100
AcDbText
 73
     3
  0
TEXT
  5
158
330
3A4
100
AcDbEntity
  8
SPEC
 62
     7
100
AcDbText
 10
-230.3000000000001
 20
771.0260472222222
 30
0.0
 40
15.20251736111111
  1
ユーロブロック
 41
0.7
 11
-230.3000000000001
 21
786.2285645833333
 31
0.0
100
AcDbText
 73
     3
  0
TEXT
  5
159
330
3A4
100
AcDbEntity
  8
SPEC
 62
     7
100
AcDbText
 10
-552.8000000000002
 20
741.0260472222222
 30
0.0
 40
15.20251736111111
  1
寸法(φ×H)
 41
0.7
 11
-552.8000000000002
 21
756.2285645833333
 31
0.0
100
AcDbText
 73
     3
  0
TEXT
  5
15A
330
3A4
100
AcDbEntity
  8
SPEC
 62
     7
100
AcDbText
 10
-552.8000000000002
 20
711.0260472222222
 30
0.0
 40
15.20251736111111
  1
質量
 41
0.7
 11
-552.8000000000002
 21
726.2285645833332
 31
0.0
100
AcDbText
 73
     3
  0
TEXT
  5
15B
330
3A4
100
AcDbEntity
  8
SPEC
 62
     7
100
AcDbText
 10
-230.3000000000001
 20
741.0260472222222
 30
0.0
 40
15.20251736111111
  1
234×259mm(除突起部)
 41
0.7
 11
-230.3000000000001
 21
756.2285645833333
 31
0.0
100
AcDbText
 73
     3
  0
TEXT
  5
15C
330
3A4
100
AcDbEntity
  8
SPEC
 62
     7
100
AcDbText
 10
-552.8000000000002
 20
951.0260472222222
 30
0.0
 40
15.20251736111111
  1
公称インピーダンス
 41
0.7
 11
-552.8000000000002
 21
966.2285645833334
 31
0.0
100
AcDbText
 73
     3
  0
TEXT
  5
15D
330
3A4
100
AcDbEntity
  8
SPEC
 62
     7
100
AcDbText
 10
-230.3000000000001
 20
891.0260472222219
 30
0.0
 40
15.20251736111111
  1
60W、30W、15W、7.5W
 41
0.7
 11
-230.3000000000001
 21
906.228564583333
 31
0.0
100
AcDbText
 73
     3
  0
TEXT
  5
15E
330
3A4
100
AcDbEntity
  8
SPEC
 62
     7
100
AcDbText
 10
-552.8000000000002
 20
801.0260472222221
 30
0.0
 40
15.20251736111111
  1
色
 41
0.7
 11
-552.8000000000002
 21
816.228564583333
 31
0.0
100
AcDbText
 73
     3
  0
TEXT
  5
15F
330
3A4
100
AcDbEntity
  8
SPEC
 62
     7
100
AcDbText
 10
-230.3000000000001
 20
1071.026047222222
 30
0.0
 40
15.20251736111111
  1
120°(+20°/-10°)
 41
0.7
 11
-230.3000000000001
 21
1086.228564583333
 31
0.0
100
AcDbText
 73
     3
  0
TEXT
  5
160
330
3A4
100
AcDbEntity
  8
SPEC
 62
     7
100
AcDbText
 10
-230.3000000000001
 20
1041.026047222222
 30
0.0
 40
15.20251736111111
  1
150W/75W
 41
0.7
 11
-230.3000000000001
 21
1056.228564583333
 31
0.0
100
AcDbText
 73
     3
  0
TEXT
  5
161
330
3A4
100
AcDbEntity
  8
SPEC
 62
     7
100
AcDbText
 10
-230.3000000000001
 20
1011.026047222222
 30
0.0
 40
15.20251736111111
  1
86dB SPL
 41
0.7
 11
-230.3000000000001
 21
1026.228564583333
 31
0.0
100
AcDbText
 73
     3
  0
TEXT
  5
162
330
3A4
100
AcDbEntity
  8
SPEC
 62
     7
100
AcDbText
 10
-230.3000000000001
 20
981.0260472222223
 30
0.0
 40
15.20251736111111
  1
105dB SPL
 41
0.7
 11
-230.3000000000001
 21
996.2285645833333
 31
0.0
100
AcDbText
 73
     3
  0
TEXT
  5
163
330
3A4
100
AcDbEntity
  8
SPEC
 62
     7
100
AcDbText
 10
-230.3000000000001
 20
951.0260472222221
 30
0.0
 40
15.20251736111111
  1
8Ω
 41
0.7
 11
-230.3000000000001
 21
966.228564583333
 31
0.0
100
AcDbText
 73
     3
  0
TEXT
  5
164
330
3A4
100
AcDbEntity
  8
SPEC
 62
     7
100
AcDbText
 10
-230.3000000000001
 20
861.026047222222
 30
0.0
 40
15.20251736111111
  1
5.25インチ(133mm)
 41
0.7
 11
-230.3000000000001
 21
876.228564583333
 31
0.0
100
AcDbText
 73
     3
  0
TEXT
  5
165
330
3A4
100
AcDbEntity
  8
SPEC
 62
     7
100
AcDbText
 10
-230.3000000000001
 20
801.0260472222221
 30
0.0
 40
15.20251736111111
  1
黒または白(－WH）
 41
0.7
 11
-230.3000000000001
 21
816.228564583333
 31
0.0
100
AcDbText
 73
     3
  0
TEXT
  5
166
330
3A4
100
AcDbEntity
  8
SPEC
 62
     7
100
AcDbText
 10
-230.3000000000001
 20
921.0260472222222
 30
0.0
 40
15.20251736111111
  1
60W、30W、15W
 41
0.7
 11
-230.3000000000001
 21
936.2285645833333
 31
0.0
100
AcDbText
 73
     3
  0
LINE
  5
167
330
3A4
100
AcDbEntity
  8
SPEC
  6
Continuous
 62
     7
100
AcDbLine
 10
624.9999999999999
 20
1124.722705
 30
0.0
 11
624.9999999999999
 21
644.722705
 31
0.0
  0
TEXT
  5
168
330
3A4
100
AcDbEntity
  8
SPEC
 62
     7
100
AcDbText
 10
-230.3000000000001
 20
711.026047222222
 30
0.0
 40
15.20251736111111
  1
3.7kg 
 41
0.7
 11
-230.3000000000001
 21
726.2285645833331
 31
0.0
100
AcDbText
 73
     3
  0
TEXT
  5
169
330
3A4
100
AcDbEntity
  8
SPEC
 62
     7
100
AcDbText
 10
-230.3000000000001
 20
831.0260472222219
 30
0.0
 40
15.20251736111111
  1
0.75インチ(19mm)
 41
0.7
 11
-230.3000000000001
 21
846.2285645833331
 31
0.0
100
AcDbText
 73
     3
  0
TEXT
  5
16A
330
3A4
100
AcDbEntity
  8
SPEC
 62
     7
100
AcDbText
 10
-552.8000000000002
 20
681.0260472222219
 30
0.0
 40
15.20251736111111
  1
付属品
 41
0.7
 11
-552.8000000000002
 21
696.2285645833329
 31
0.0
100
AcDbText
 73
     3
  0
TEXT
  5
16B
330
3A4
100
AcDbEntity
  8
SPEC
 62
     7
100
AcDbText
 10
-230.3000000000001
 20
681.0260472222222
 30
0.0
 40
15.20251736111111
  1
吊下げワイヤー・キット×2、2ピン・ユーロブロックコネクター×4、端子カバー×4、
 41
0.7
 11
-230.3000000000001
 21
696.2285645833333
 31
0.0
100
AcDbText
 73
     3
  0
TEXT
  5
16C
330
3A4
100
AcDbEntity
  8
SPEC
 62
     7
100
AcDbText
 10
-230.3000000000001
 20
651.0260472222219
 30
0.0
 40
15.20251736111111
  1
和文取扱説明書
 41
0.7
 11
-230.3000000000001
 21
666.2285645833329
 31
0.0
100
AcDbText
 73
     3
  0
LINE
  5
16D
330
3A4
100
AcDbEntity
  8
SPEC
  6
Continuous
 62
     7
100
AcDbLine
 10
-559.9999999999998
 20
644.7227049999997
 30
0.0
 11
625.0
 21
644.7227049999997
 31
0.0
  0
TEXT
  5
16E
330
3A4
100
AcDbEntity
  8
SPEC
 62
     7
100
AcDbText
 10
-293.9132826933147
 20
921.8700210299793
 30
0.0
 40
15.20251736111111
  1
100V
 41
0.7
 11
-293.9132826933147
 21
937.0725383910903
 31
0.0
100
AcDbText
 73
     3
  0
LINE
  5
16F
330
3A4
100
AcDbEntity
  8
SPEC
  6
Continuous
 62
     7
100
AcDbLine
 10
-300.0
 20
944.722705
 30
0.0
 11
-300.0
 21
824.7227049999997
 31
0.0
  0
TEXT
  5
170
330
3A4
100
AcDbEntity
  8
SPEC
 62
     7
100
AcDbText
 10
-293.0391265364798
 20
892.1614064155912
 30
0.0
 40
15.20251736111111
  1
70V
 41
0.7
 11
-293.0391265364798
 21
907.3639237767022
 31
0.0
100
AcDbText
 73
     3
  0
TEXT
  5
171
330
3A4
100
AcDbEntity
  8
SPEC
 62
     7
100
AcDbText
 10
-292.8772457666956
 20
862.6470487249434
 30
0.0
 40
15.20251736111111
  1
LF
 41
0.7
 11
-292.8772457666956
 21
877.8495660860546
 31
0.0
100
AcDbText
 73
     3
  0
TEXT
  5
172
330
3A4
100
AcDbEntity
  8
SPEC
 62
     7
100
AcDbText
 10
-292.8772458593245
 20
833.5535808852126
 30
0.0
 40
15.20251736111111
  1
HF
 41
0.7
 11
-292.8772458593245
 21
848.7560982463238
 31
0.0
100
AcDbText
 73
     3
  0
TEXT
  5
173
330
3A4
100
AcDbEntity
  8
SPEC
 62
     7
100
AcDbText
 10
-537.5
 20
605.388
 30
0.0
 40
15.20251736111111
  1
※100時間、ピンクノイズ:IEC/クレストファクター6dB
 41
0.7
 11
-537.5
 21
620.590517361111
 31
0.0
100
AcDbText
 73
     3
  0
LINE
  5
174
330
3A4
100
AcDbEntity
  8
DIMNSIONS
  6
Continuous
 62
     7
100
AcDbLine
 10
-419.2346815147271
 20
-315.4080890883624
 30
0.0
 11
-425.0
 21
-350.0
 31
0.0
  0
LINE
  5
175
330
3A4
100
AcDbEntity
  8
DIMNSIONS
  6
Continuous
 62
     7
100
AcDbLine
 10
-419.2346815147271
 20
-315.4080890883624
 30
0.0
 11
-417.069825985259
 21
-336.0053135864602
 31
0.0
  0
LINE
  5
176
330
3A4
100
AcDbEntity
  8
DIMNSIONS
  6
Continuous
 62
     7
100
AcDbLine
 10
-419.2346815147271
 20
-315.4080890883624
 30
0.0
 11
-427.6584738797335
 21
-334.3282365159003
 31
0.0
  0
LINE
  5
177
330
3A4
100
AcDbEntity
  8
DIMNSIONS
  6
Continuous
 62
     7
100
AcDbLine
 10
-425.0
 20
-350.0
 30
0.0
 11
-441.0
 21
-350.0
 31
0.0
  0
TEXT
  5
178
330
3A4
100
AcDbEntity
  8
DIMNSIONS
 62
     7
100
AcDbText
 10
-511.5555555555557
 20
-360.16
 30
0.0
 40
21.71788194444445
  1
φ234
 41
0.7
 11
-511.5555555555557
 21
-338.4421180555555
 31
0.0
100
AcDbText
 73
     3
  0
LINE
  5
179
330
3A4
100
AcDbEntity
  8
DIMNSIONS
  6
Continuous
 62
     7
100
AcDbLine
 10
-250.0
 20
-295.05405375
 30
0.0
 11
-250.0
 21
-366.0
 31
0.0
  0
LINE
  5
17A
330
3A4
100
AcDbEntity
  8
DIMNSIONS
  6
Continuous
 62
     7
100
AcDbLine
 10
9.000000000150166
 20
-295.6247706105869
 30
0.0
 11
9.000000000150166
 21
-366.0
 31
0.0
  0
LINE
  5
17B
330
3A4
100
AcDbEntity
  8
DIMNSIONS
  6
Continuous
 62
     7
100
AcDbLine
 10
-250.0
 20
-350.0
 30
0.0
 11
9.000000000150166
 21
-350.0
 31
0.0
  0
LINE
  5
17C
330
3A4
100
AcDbEntity
  8
DIMNSIONS
  6
Continuous
 62
     7
100
AcDbLine
 10
-250.0
 20
-350.0
 30
0.0
 11
-229.99501953125
 21
-344.639681638798
 31
0.0
  0
LINE
  5
17D
330
3A4
100
AcDbEntity
  8
DIMNSIONS
  6
Continuous
 62
     7
100
AcDbLine
 10
-250.0
 20
-350.0
 30
0.0
 11
-229.99501953125
 21
-355.360318361202
 31
0.0
  0
LINE
  5
17E
330
3A4
100
AcDbEntity
  8
DIMNSIONS
  6
Continuous
 62
     7
100
AcDbLine
 10
9.000000000150166
 20
-350.0
 30
0.0
 11
-11.00498046859984
 21
-355.360318361202
 31
0.0
  0
LINE
  5
17F
330
3A4
100
AcDbEntity
  8
DIMNSIONS
  6
Continuous
 62
     7
100
AcDbLine
 10
9.000000000150166
 20
-350.0
 30
0.0
 11
-11.00498046859984
 21
-344.639681638798
 31
0.0
  0
TEXT
  5
180
330
3A4
100
AcDbEntity
  8
DIMNSIONS
 62
     7
100
AcDbText
 10
-141.6666666665916
 20
-342.0488888888889
 30
0.0
 40
21.71788194444445
  1
259
 41
0.7
 11
-141.6666666665916
 21
-320.3310069444444
 31
0.0
100
AcDbText
 73
     3
  0
LINE
  5
181
330
3A4
100
AcDbEntity
  8
DIMNSIONS
  6
Continuous
 62
     7
100
AcDbLine
 10
-250.0
 20
-295.05405375
 30
0.0
 11
-250.0
 21
-403.5
 31
0.0
  0
LINE
  5
182
330
3A4
100
AcDbEntity
  8
DIMNSIONS
  6
Continuous
 62
     7
100
AcDbLine
 10
29.00000000015017
 20
-224.8110162573394
 30
0.0
 11
29.00000000015017
 21
-403.5
 31
0.0
  0
LINE
  5
183
330
3A4
100
AcDbEntity
  8
DIMNSIONS
  6
Continuous
 62
     7
100
AcDbLine
 10
-250.0
 20
-387.5
 30
0.0
 11
29.00000000015017
 21
-387.5
 31
0.0
  0
LINE
  5
184
330
3A4
100
AcDbEntity
  8
DIMNSIONS
  6
Continuous
 62
     7
100
AcDbLine
 10
-250.0
 20
-387.5
 30
0.0
 11
-229.99501953125
 21
-382.139681638798
 31
0.0
  0
LINE
  5
185
330
3A4
100
AcDbEntity
  8
DIMNSIONS
  6
Continuous
 62
     7
100
AcDbLine
 10
-250.0
 20
-387.5
 30
0.0
 11
-229.99501953125
 21
-392.860318361202
 31
0.0
  0
LINE
  5
186
330
3A4
100
AcDbEntity
  8
DIMNSIONS
  6
Continuous
 62
     7
100
AcDbLine
 10
29.00000000015017
 20
-387.5
 30
0.0
 11
8.99501953140016
 21
-392.860318361202
 31
0.0
  0
LINE
  5
187
330
3A4
100
AcDbEntity
  8
DIMNSIONS
  6
Continuous
 62
     7
100
AcDbLine
 10
29.00000000015017
 20
-387.5
 30
0.0
 11
8.99501953140016
 21
-382.139681638798
 31
0.0
  0
TEXT
  5
188
330
3A4
100
AcDbEntity
  8
DIMNSIONS
 62
     7
100
AcDbText
 10
-131.6666666665916
 20
-379.5488888888889
 30
0.0
 40
21.71788194444445
  1
279
 41
0.7
 11
-131.6666666665916
 21
-357.8310069444444
 31
0.0
100
AcDbText
 73
     3
  0
LINE
  5
189
330
3A4
100
AcDbEntity
  8
DIMNSIONS
  6
Continuous
 62
     7
100
AcDbLine
 10
25.80000000015015
 20
-166.0
 30
0.0
 11
91.0
 21
-166.0
 31
0.0
  0
LINE
  5
18A
330
3A4
100
AcDbEntity
  8
DIMNSIONS
  6
Continuous
 62
     7
100
AcDbLine
 10
25.80000000015015
 20
-234.0
 30
0.0
 11
91.0
 21
-234.0
 31
0.0
  0
LINE
  5
18B
330
3A4
100
AcDbEntity
  8
DIMNSIONS
  6
Continuous
 62
     7
100
AcDbLine
 10
75.0
 20
-166.0
 30
0.0
 11
75.0
 21
-234.0
 31
0.0
  0
LINE
  5
18C
330
3A4
100
AcDbEntity
  8
DIMNSIONS
  6
Continuous
 62
     7
100
AcDbLine
 10
75.0
 20
-166.0
 30
0.0
 11
80.36031836120194
 21
-186.00498046875
 31
0.0
  0
LINE
  5
18D
330
3A4
100
AcDbEntity
  8
DIMNSIONS
  6
Continuous
 62
     7
100
AcDbLine
 10
75.0
 20
-166.0
 30
0.0
 11
69.63968163879805
 21
-186.00498046875
 31
0.0
  0
LINE
  5
18E
330
3A4
100
AcDbEntity
  8
DIMNSIONS
  6
Continuous
 62
     7
100
AcDbLine
 10
75.0
 20
-234.0
 30
0.0
 11
69.63968163879805
 21
-213.99501953125
 31
0.0
  0
LINE
  5
18F
330
3A4
100
AcDbEntity
  8
DIMNSIONS
  6
Continuous
 62
     7
100
AcDbLine
 10
75.0
 20
-234.0
 30
0.0
 11
80.36031836120194
 21
-213.99501953125
 31
0.0
  0
TEXT
  5
190
330
3A4
100
AcDbEntity
  8
DIMNSIONS
 62
     7
100
AcDbText
 10
67.04888888888888
 20
-214.1111111111111
 30
0.0
 40
21.71788194444445
  1
68
 50
90.0
 41
0.7
 11
45.33100694444442
 21
-214.1111111111111
 31
0.0
100
AcDbText
 73
     3
  0
LINE
  5
191
330
3A4
100
AcDbEntity
  8
DIMNSIONS
  6
Continuous
 62
     7
100
AcDbLine
 10
18.95184604222608
 20
-194.5012583043875
 30
0.0
 11
87.49999999999998
 21
-37.5
 31
0.0
  0
LINE
  5
192
330
3A4
100
AcDbEntity
  8
DIMNSIONS
  6
Continuous
 62
     7
100
AcDbLine
 10
18.95184604222608
 20
-194.5012583043875
 30
0.0
 11
22.19171015248814
 21
-174.0455613708791
 31
0.0
  0
LINE
  5
193
330
3A4
100
AcDbEntity
  8
DIMNSIONS
  6
Continuous
 62
     7
100
AcDbLine
 10
18.95184604222608
 20
-194.5012583043875
 30
0.0
 11
31.98549913327668
 21
-178.4060371629849
 31
0.0
  0
LINE
  5
194
330
3A4
100
AcDbEntity
  8
DIMNSIONS
  6
Continuous
 62
     7
100
AcDbLine
 10
87.49999999999998
 20
-37.5
 30
0.0
 11
103.5
 21
-37.5
 31
0.0
  0
TEXT
  5
195
330
3A4
100
AcDbEntity
  8
DIMNSIONS
 62
     7
100
AcDbText
 10
103.5
 20
-47.65999999999999
 30
0.0
 40
21.71788194444445
  1
φ12吊下げ
 41
0.7
 11
103.5
 21
-25.94211805555554
 31
0.0
100
AcDbText
 73
     3
  0
LINE
  5
196
330
3A4
100
AcDbEntity
  8
DIMNSIONS
  6
Continuous
 62
     7
100
AcDbLine
 10
224.0
 20
-250.0
 30
0.0
 11
224.0
 21
-366.0
 31
0.0
  0
LINE
  5
197
330
3A4
100
AcDbEntity
  8
DIMNSIONS
  6
Continuous
 62
     7
100
AcDbLine
 10
226.0
 20
-250.0
 30
0.0
 11
226.0
 21
-366.0
 31
0.0
  0
LINE
  5
198
330
3A4
100
AcDbEntity
  8
DIMNSIONS
  6
Continuous
 62
     7
100
AcDbLine
 10
226.0
 20
-350.0
 30
0.0
 11
224.0
 21
-350.0
 31
0.0
  0
LINE
  5
199
330
3A4
100
AcDbEntity
  8
DIMNSIONS
  6
Continuous
 62
     7
100
AcDbLine
 10
224.0
 20
-350.0
 30
0.0
 11
196.0
 21
-350.0
 31
0.0
  0
LINE
  5
19A
330
3A4
100
AcDbEntity
  8
DIMNSIONS
  6
Continuous
 62
     7
100
AcDbLine
 10
224.0
 20
-350.0
 30
0.0
 11
203.99501953125
 21
-355.360318361202
 31
0.0
  0
LINE
  5
19B
330
3A4
100
AcDbEntity
  8
DIMNSIONS
  6
Continuous
 62
     7
100
AcDbLine
 10
224.0
 20
-350.0
 30
0.0
 11
203.99501953125
 21
-344.639681638798
 31
0.0
  0
LINE
  5
19C
330
3A4
100
AcDbEntity
  8
DIMNSIONS
  6
Continuous
 62
     7
100
AcDbLine
 10
226.0
 20
-350.0
 30
0.0
 11
256.2222222222221
 21
-350.0
 31
0.0
  0
LINE
  5
19D
330
3A4
100
AcDbEntity
  8
DIMNSIONS
  6
Continuous
 62
     7
100
AcDbLine
 10
226.0
 20
-350.0
 30
0.0
 11
246.00498046875
 21
-344.639681638798
 31
0.0
  0
LINE
  5
19E
330
3A4
100
AcDbEntity
  8
DIMNSIONS
  6
Continuous
 62
     7
100
AcDbLine
 10
226.0
 20
-350.0
 30
0.0
 11
246.00498046875
 21
-355.360318361202
 31
0.0
  0
TEXT
  5
19F
330
3A4
100
AcDbEntity
  8
DIMNSIONS
 62
     7
100
AcDbText
 10
242.1111111111111
 20
-342.0488888888889
 30
0.0
 40
21.71788194444445
  1
2
 41
0.7
 11
242.1111111111111
 21
-320.3310069444444
 31
0.0
100
AcDbText
 73
     3
  0
TEXT
  5
1A0
330
3A4
100
AcDbEntity
  8
DIMNSIONS
 62
     7
100
AcDbText
 10
-60.00000000000002
 20
-777.1213749999999
 30
0.0
 40
19.54609375
  1
(単位：mm)
 41
0.7
 11
-60.00000000000002
 21
-757.57528125
 31
0.0
100
AcDbText
 73
     3
  0
TEXT
  5
1A1
330
3A4
100
AcDbEntity
  8
DIMNSIONS
 62
     7
100
AcDbText
 10
-158.4444444444444
 20
-75.88222222222222
 30
0.0
 40
21.71788194444445
  1
取付穴(2ヵ所)
 41
0.7
 11
-158.4444444444444
 21
-54.16434027777778
 31
0.0
100
AcDbText
 73
     3
  0
LINE
  5
1A2
330
3A4
100
AcDbEntity
  8
DIMNSIONS
  6
Continuous
 62
     7
100
AcDbLine
 10
16.35862588096937
 20
-179.9966266494081
 30
0.0
 11
50.0
 21
-37.5
 31
0.0
  0
LINE
  5
1A3
330
3A4
100
AcDbEntity
  8
DIMNSIONS
  6
Continuous
 62
     7
100
AcDbLine
 10
16.35862588096937
 20
-179.9966266494081
 30
0.0
 11
15.9971746800507
 21
-159.2891012173855
 31
0.0
  0
LINE
  5
1A4
330
3A4
100
AcDbEntity
  8
DIMNSIONS
  6
Continuous
 62
     7
100
AcDbLine
 10
16.35862588096937
 20
-179.9966266494081
 30
0.0
 11
26.39936267475671
 21
-161.8826579753048
 31
0.0
  0
LINE
  5
1A5
330
3A4
100
AcDbEntity
  8
DIMNSIONS
  6
Continuous
 62
     7
100
AcDbLine
 10
50.0
 20
-37.5
 30
0.0
 11
34.0
 21
-37.5
 31
0.0
  0
TEXT
  5
1A6
330
3A4
100
AcDbEntity
  8
DIMNSIONS
 62
     7
100
AcDbText
 10
-276.4444444444444
 20
-47.65999999999999
 30
0.0
 40
21.71788194444445
  1
φ7.5落下防止ワイヤー 
 41
0.7
 11
-276.4444444444444
 21
-25.94211805555554
 31
0.0
100
AcDbText
 73
     3
  0
TEXT
  5
1A7
330
3A4
100
AcDbEntity
  8
DIMNSIONS
 62
     7
100
AcDbText
 10
103.5
 20
-75.88222222222222
 30
0.0
 40
21.71788194444445
  1
ワイヤー取付穴
 41
0.7
 11
103.5
 21
-54.16434027777778
 31
0.0
100
AcDbText
 73
     3
  0
TEXT
  5
1A8
330
3A4
100
AcDbEntity
  8
DATA
 62
     7
100
AcDbText
 10
500.0
 20
-786.2301749999998
 30
0.0
 40
19.54609375
  1
Control 65P/T
 41
0.7
 11
500.0
 21
-766.6840812499998
 31
0.0
100
AcDbText
 73
     3
  0
LINE
  5
1A9
330
3A4
100
AcDbEntity
  8
DATA
  6
Continuous
 62
     7
100
AcDbLine
 10
638.25
 20
71.91937959738517
 30
0.0
 11
561.7499999999999
 21
71.91937959738517
 31
0.0
  0
LINE
  5
1AA
330
3A4
100
AcDbEntity
  8
DATA
  6
Continuous
 62
     7
100
AcDbLine
 10
638.25
 20
14.54437959738487
 30
0.0
 11
638.25
 21
71.91937959738517
 31
0.0
  0
LINE
  5
1AB
330
3A4
100
AcDbEntity
  8
DATA
  6
Continuous
 62
     7
100
AcDbLine
 10
561.7499999999999
 20
14.54437959738487
 30
0.0
 11
561.7499999999999
 21
71.91937959738517
 31
0.0
  0
LINE
  5
1AC
330
3A4
100
AcDbEntity
  8
DATA
  6
Continuous
 62
     7
100
AcDbLine
 10
638.25
 20
14.54437959738487
 30
0.0
 11
561.7499999999999
 21
14.54437959738487
 31
0.0
  0
LWPOLYLINE
  5
1AD
330
3A4
100
AcDbEntity
  8
DATA
  6
Continuous
 62
     7
100
AcDbPolyline
 90
        4
 70
     1
 43
0.0
 10
580.8749999999999
 20
46.41937959738488
 10
587.25
 20
46.41937959738488
 10
587.25
 20
40.04437959738488
 10
580.8749999999999
 20
40.04437959738488
  0
LWPOLYLINE
  5
1B4
330
3A4
100
AcDbEntity
  8
DATA
  6
Continuous
 62
     7
100
AcDbPolyline
 90
        4
 70
     1
 43
0.0
 10
612.75
 20
46.41937959738488
 10
619.125
 20
46.41937959738488
 10
619.125
 20
40.04437959738488
 10
612.75
 20
40.04437959738488
  0
LINE
  5
1BB
330
3A4
100
AcDbEntity
  8
DATA
  6
Continuous
 62
     7
100
AcDbLine
 10
611.5272918988418
 20
96.14437959738522
 30
0.0
 11
624.277291898842
 21
96.14437959738522
 31
0.0
  0
LINE
  5
1BC
330
3A4
100
AcDbEntity
  8
DATA
  6
Continuous
 62
     7
100
AcDbLine
 10
582.0977081011582
 20
89.76937959738521
 30
0.0
 11
582.0977081011582
 21
102.5193795973852
 31
0.0
  0
LINE
  5
1BD
330
3A4
100
AcDbEntity
  8
DATA
  6
Continuous
 62
     7
100
AcDbLine
 10
575.7227081011582
 20
96.14437959738522
 30
0.0
 11
588.4727081011582
 21
96.14437959738522
 31
0.0
  0
LINE
  5
1BE
330
3A4
100
AcDbEntity
  8
DATA
  6
Continuous
 62
     7
100
AcDbLine
 10
565.5749999999998
 20
24.10687959738488
 30
0.0
 11
565.5749999999998
 21
62.35687959738516
 31
0.0
  0
LINE
  5
1BF
330
3A4
100
AcDbEntity
  8
DATA
  6
Continuous
 62
     7
100
AcDbLine
 10
634.4250000000002
 20
24.10687959738488
 30
0.0
 11
634.4250000000002
 21
62.35687959738516
 31
0.0
  0
LINE
  5
1C0
330
3A4
100
AcDbEntity
  8
DATA
  6
Continuous
 62
     7
100
AcDbLine
 10
634.4250000000002
 20
62.35687959738516
 30
0.0
 11
565.5749999999998
 21
62.35687959738516
 31
0.0
  0
LINE
  5
1C1
330
3A4
100
AcDbEntity
  8
DATA
  6
Continuous
 62
     7
100
AcDbLine
 10
634.4250000000002
 20
24.10687959738488
 30
0.0
 11
631.2374999999977
 21
24.10687959738488
 31
0.0
  0
LINE
  5
1C2
330
3A4
100
AcDbEntity
  8
DATA
  6
Continuous
 62
     7
100
AcDbLine
 10
603.1875000000025
 20
24.10687959738488
 30
0.0
 11
596.8124999999976
 21
24.10687959738488
 31
0.0
  0
LINE
  5
1C3
330
3A4
100
AcDbEntity
  8
DATA
  6
Continuous
 62
     7
100
AcDbLine
 10
568.7625000000023
 20
24.10687959738488
 30
0.0
 11
565.5749999999998
 21
24.10687959738488
 31
0.0
  0
LINE
  5
1C4
330
3A4
100
AcDbEntity
  8
DATA
  6
Continuous
 62
     7
100
AcDbLine
 10
565.5749999999998
 20
24.10687959738488
 30
0.0
 11
568.7625000000023
 21
24.10687959738488
 31
0.0
  0
LINE
  5
1C5
330
3A4
100
AcDbEntity
  8
DATA
  6
Continuous
 62
     7
100
AcDbLine
 10
596.8124999999976
 20
24.10687959738488
 30
0.0
 11
600.0
 21
24.10687959738488
 31
0.0
  0
ARC
  5
1C6
330
3A4
100
AcDbEntity
  8
DATA
  6
Continuous
 62
     7
100
AcDbCircle
 10
582.7875
 20
34.31143316881338
 30
0.0
 40
17.34455357142856
100
AcDbArc
 50
216.039538563554
 51
323.9604614364457
  0
ARC
  5
1C7
330
3A4
100
AcDbEntity
  8
DATA
  6
Continuous
 62
     7
100
AcDbCircle
 10
617.2125000000002
 20
34.31143316881338
 30
0.0
 40
17.3445535714287
100
AcDbArc
 50
216.0395385635538
 51
323.9604614364457
  0
LINE
  5
1C8
330
3A4
100
AcDbEntity
  8
DATA
  6
Continuous
 62
     7
100
AcDbLine
 10
638.25
 20
-42.6249999999996
 30
0.0
 11
561.7499999999999
 21
-42.6249999999996
 31
0.0
  0
LINE
  5
1C9
330
3A4
100
AcDbEntity
  8
DATA
  6
Continuous
 62
     7
100
AcDbLine
 10
638.25
 20
-100.0
 30
0.0
 11
638.25
 21
-42.6249999999996
 31
0.0
  0
LINE
  5
1CA
330
3A4
100
AcDbEntity
  8
DATA
  6
Continuous
 62
     7
100
AcDbLine
 10
561.7499999999999
 20
-100.0
 30
0.0
 11
561.7499999999999
 21
-42.6249999999996
 31
0.0
  0
LINE
  5
1CB
330
3A4
100
AcDbEntity
  8
DATA
  6
Continuous
 62
     7
100
AcDbLine
 10
638.25
 20
-100.0
 30
0.0
 11
561.7499999999999
 21
-100.0
 31
0.0
  0
LWPOLYLINE
  5
1CC
330
3A4
100
AcDbEntity
  8
DATA
  6
Continuous
 62
     7
100
AcDbPolyline
 90
        4
 70
     1
 43
0.0
 10
580.8749999999999
 20
-68.125
 10
587.25
 20
-68.125
 10
587.25
 20
-74.5
 10
580.8749999999999
 20
-74.5
  0
LWPOLYLINE
  5
1D3
330
3A4
100
AcDbEntity
  8
DATA
  6
Continuous
 62
     7
100
AcDbPolyline
 90
        4
 70
     1
 43
0.0
 10
612.75
 20
-68.125
 10
619.125
 20
-68.125
 10
619.125
 20
-74.5
 10
612.75
 20
-74.5
  0
LINE
  5
1DA
330
3A4
100
AcDbEntity
  8
DATA
  6
Continuous
 62
     7
100
AcDbLine
 10
611.5272918988418
 20
-18.39999999999957
 30
0.0
 11
624.277291898842
 21
-18.39999999999957
 31
0.0
  0
LINE
  5
1DB
330
3A4
100
AcDbEntity
  8
DATA
  6
Continuous
 62
     7
100
AcDbLine
 10
582.0977081011582
 20
-24.77499999999958
 30
0.0
 11
582.0977081011582
 21
-12.0249999999996
 31
0.0
  0
LINE
  5
1DC
330
3A4
100
AcDbEntity
  8
DATA
  6
Continuous
 62
     7
100
AcDbLine
 10
575.7227081011582
 20
-18.39999999999957
 30
0.0
 11
588.4727081011582
 21
-18.39999999999957
 31
0.0
  0
LINE
  5
1DD
330
3A4
100
AcDbEntity
  8
DATA
  6
Continuous
 62
     7
100
AcDbLine
 10
565.5749999999998
 20
-90.43750000000001
 30
0.0
 11
565.5749999999998
 21
-52.1874999999996
 31
0.0
  0
LINE
  5
1DE
330
3A4
100
AcDbEntity
  8
DATA
  6
Continuous
 62
     7
100
AcDbLine
 10
634.4250000000002
 20
-90.43750000000001
 30
0.0
 11
634.4250000000002
 21
-52.1874999999996
 31
0.0
  0
LINE
  5
1DF
330
3A4
100
AcDbEntity
  8
DATA
  6
Continuous
 62
     7
100
AcDbLine
 10
634.4250000000002
 20
-52.1874999999996
 30
0.0
 11
565.5749999999998
 21
-52.1874999999996
 31
0.0
  0
LINE
  5
1E0
330
3A4
100
AcDbEntity
  8
DATA
  6
Continuous
 62
     7
100
AcDbLine
 10
634.4250000000002
 20
-90.43750000000001
 30
0.0
 11
631.2374999999977
 21
-90.43750000000001
 31
0.0
  0
LINE
  5
1E1
330
3A4
100
AcDbEntity
  8
DATA
  6
Continuous
 62
     7
100
AcDbLine
 10
603.1875000000025
 20
-90.43750000000001
 30
0.0
 11
596.8124999999976
 21
-90.43750000000001
 31
0.0
  0
LINE
  5
1E2
330
3A4
100
AcDbEntity
  8
DATA
  6
Continuous
 62
     7
100
AcDbLine
 10
568.7625000000023
 20
-90.43750000000001
 30
0.0
 11
565.5749999999998
 21
-90.43750000000001
 31
0.0
  0
LINE
  5
1E3
330
3A4
100
AcDbEntity
  8
DATA
  6
Continuous
 62
     7
100
AcDbLine
 10
565.5749999999998
 20
-90.43750000000001
 30
0.0
 11
568.7625000000023
 21
-90.43750000000001
 31
0.0
  0
LINE
  5
1E4
330
3A4
100
AcDbEntity
  8
DATA
  6
Continuous
 62
     7
100
AcDbLine
 10
596.8124999999976
 20
-90.43750000000001
 30
0.0
 11
600.0
 21
-90.43750000000001
 31
0.0
  0
ARC
  5
1E5
330
3A4
100
AcDbEntity
  8
DATA
  6
Continuous
 62
     7
100
AcDbCircle
 10
582.7875
 20
-80.23294642857148
 30
0.0
 40
17.34455357142856
100
AcDbArc
 50
216.039538563554
 51
323.9604614364457
  0
ARC
  5
1E6
330
3A4
100
AcDbEntity
  8
DATA
  6
Continuous
 62
     7
100
AcDbCircle
 10
617.2125000000002
 20
-80.23294642857148
 30
0.0
 40
17.3445535714287
100
AcDbArc
 50
216.0395385635538
 51
323.9604614364457
  0
CIRCLE
  5
1E7
330
3A4
100
AcDbEntity
  8
DATA
  6
Continuous
 62
     7
100
AcDbCircle
 10
600.0
 20
-349.9999999999989
 30
0.0
 40
75.61144800000011
  0
TEXT
  5
1E8
330
3A4
100
AcDbEntity
  8
DATA
 62
     7
100
AcDbText
 10
610.7740604042951
 20
-393.9022470470293
 30
0.0
 40
17.96069298310547
  1
30
 50
284.0
 41
0.7
 11
628.2012440467577
 21
-389.5571621542728
 31
0.0
100
AcDbText
 73
     3
  0
TEXT
  5
1E9
330
3A4
100
AcDbEntity
  8
DATA
 62
     7
100
AcDbText
 10
610.7360926954506
 20
-281.334992518881
 30
0.0
 40
17.96069298310547
  1
30
 50
265.0
 41
0.7
 11
628.6284398192739
 21
-282.9003700560862
 31
0.0
100
AcDbText
 73
     3
  0
TEXT
  5
1EA
330
3A4
100
AcDbEntity
  8
DATA
 62
     7
100
AcDbText
 10
641.0942202583177
 20
-359.1220113373122
 30
0.0
 40
17.96069298310547
  1
8Ω
 41
0.7
 11
641.0942202583177
 21
-341.1613183542067
 31
0.0
100
AcDbText
 73
     3
  0
TEXT
  5
1EB
330
3A4
100
AcDbEntity
  8
DATA
 62
     7
100
AcDbText
 10
559.0636259951781
 20
-341.0581036108639
 30
0.0
 40
17.96069298310547
  1
8Ω
 50
180.0
 41
0.7
 11
559.0636259951781
 21
-359.0187965939694
 31
0.0
100
AcDbText
 73
     3
  0
TEXT
  5
1EC
330
3A4
100
AcDbEntity
  8
DATA
 62
     7
100
AcDbText
 10
647.3083213940774
 20
-298.1352036311639
 30
0.0
 40
17.96069298310547
  1
15
 50
240.0
 41
0.7
 11
662.8627377870197
 21
-307.1155501227166
 31
0.0
100
AcDbText
 73
     3
  0
CIRCLE
  5
1ED
330
3A4
100
AcDbEntity
  8
DATA
  6
Continuous
 62
     7
100
AcDbCircle
 10
547.5
 20
-313.1927873555205
 30
0.0
 40
3.930587330576076
  0
TEXT
  5
1EE
330
3A4
100
AcDbEntity
  8
DATA
 62
     7
100
AcDbText
 10
571.5464408368513
 20
-370.6513498193934
 30
0.0
 40
17.96069298310547
  1
7.5
 50
210.0
 41
0.7
 11
580.5267873284041
 21
-386.2057662123357
 31
0.0
100
AcDbText
 73
     3
  0
TEXT
  5
1EF
330
3A4
100
AcDbEntity
  8
DATA
 62
     7
100
AcDbText
 10
580.2018985600843
 20
-394.2112320510684
 30
0.0
 40
17.96069298310547
  1
15
 50
240.0
 41
0.7
 11
595.7563149530265
 21
-403.1915785426211
 31
0.0
100
AcDbText
 73
     3
  0
TEXT
  5
1F0
330
3A4
100
AcDbEntity
  8
DATA
 62
     7
100
AcDbText
 10
634.1759411151294
 20
-379.287525790164
 30
0.0
 40
17.96069298310547
  1
60
 50
300.0
 41
0.7
 11
649.7303575080715
 21
-370.3071792986112
 31
0.0
100
AcDbText
 73
     3
  0
TEXT
  5
1F1
330
3A4
100
AcDbEntity
  8
DATA
 62
     7
100
AcDbText
 10
565.6592812530123
 20
-288.6004396977821
 30
0.0
 40
17.96069298310547
  1
60
 50
290.0000000000001
 41
0.7
 11
582.5368119134378
 21
-282.4575209094719
 31
0.0
100
AcDbText
 73
     3
  0
LWPOLYLINE
  5
1F2
330
3A4
100
AcDbEntity
  8
DATA
  6
Continuous
 62
     7
100
AcDbPolyline
 90
        4
 70
     1
 43
0.0
 10
568.2867775214504
 20
-364.2319201524268
 10
566.1860110964973
 20
-352.3178817193254
 10
631.7132224785507
 20
-340.7636663820831
 10
633.8139889035044
 20
-352.6777048151844
  0
LINE
  5
1F9
330
3A4
100
AcDbEntity
  8
DATA
  6
Continuous
 62
     7
100
AcDbLine
 10
502.8392893200002
 20
-357.5611448000001
 30
0.0
 11
517.9615789200002
 21
-349.9999999999998
 31
0.0
  0
LINE
  5
1FA
330
3A4
100
AcDbEntity
  8
DATA
  6
Continuous
 62
     7
100
AcDbLine
 10
517.9615789200002
 20
-349.9999999999998
 30
0.0
 11
502.8392893200002
 21
-342.4388551999998
 31
0.0
  0
LINE
  5
1FB
330
3A4
100
AcDbEntity
  8
DATA
  6
Continuous
 62
     7
100
AcDbLine
 10
502.8392893200002
 20
-357.5611448000001
 30
0.0
 11
502.8392893200002
 21
-342.4388551999998
 31
0.0
  0
LINE
  5
1FC
330
3A4
100
AcDbEntity
  8
DATA
  6
Continuous
 62
     7
100
AcDbLine
 10
697.1607106800002
 20
-357.5611448000001
 30
0.0
 11
682.0384210800003
 21
-349.9999999999998
 31
0.0
  0
LINE
  5
1FD
330
3A4
100
AcDbEntity
  8
DATA
  6
Continuous
 62
     7
100
AcDbLine
 10
682.0384210800003
 20
-349.9999999999998
 30
0.0
 11
697.1607106800002
 21
-342.4388551999998
 31
0.0
  0
LINE
  5
1FE
330
3A4
100
AcDbEntity
  8
DATA
  6
Continuous
 62
     7
100
AcDbLine
 10
697.1607106800002
 20
-357.5611448000001
 30
0.0
 11
697.1607106800002
 21
-342.4388551999998
 31
0.0
  0
TEXT
  5
1FF
330
3A4
100
AcDbEntity
  8
DATA
 62
     7
100
AcDbText
 10
590.0740442166088
 20
-382.7146436371783
 30
0.0
 40
17.96069298310547
  1
70V
 50
9.999999999999996
 41
0.7
 11
586.9552026104574
 21
-365.026813937944
 31
0.0
100
AcDbText
 73
     3
  0
TEXT
  5
200
330
3A4
100
AcDbEntity
  8
DATA
 62
     7
100
AcDbText
 10
617.4641689024473
 20
-321.9731742582536
 30
0.0
 40
17.96069298310547
  1
100V
 50
190.0
 41
0.7
 11
620.5830105085988
 21
-339.6610039574878
 31
0.0
100
AcDbText
 73
     3
  0
TEXT
  5
201
330
3A4
100
AcDbEntity
  8
DATA
 62
     7
100
AcDbText
 10
556.9262008101851
 20
-137.2761509129909
 30
0.0
 40
21.71788194444445
  1
端子拡大図
 41
0.7
 72
     1
 11
600.0
 21
-126.4172099407687
 31
0.0
100
AcDbText
 73
     2
  0
LINE
  5
202
330
3A4
100
AcDbEntity
  8
DATA
  6
Continuous
 62
     7
100
AcDbLine
 10
518.75
 20
-151.4172099407687
 30
0.0
 11
681.25
 21
-151.4172099407687
 31
0.0
  0
TEXT
  5
203
330
3A4
100
AcDbEntity
  8
DATA
 62
     7
100
AcDbText
 10
498.7946938164448
 20
-727.7058230714849
 30
0.0
 40
19.54609375
  1
JBL PROFESSIONAL
 41
0.7
 11
498.7946938164448
 21
-708.159729321485
 31
0.0
100
AcDbText
 73
     3
  0
TEXT
  5
204
330
3A4
100
AcDbEntity
  8
DATA
 62
     7
100
AcDbText
 10
436.1367590093014
 20
-753.0460997874596
 30
0.0
 40
13.03072916666666
  1
天井吊下げ用同軸2-Wayフルレンジ・スピーカー
 41
0.7
 11
436.1367590093014
 21
-740.0153706207929
 31
0.0
100
AcDbText
 73
     3
  0
TEXT
  5
205
330
3A4
100
AcDbEntity
  8
DATA
 62
     7
100
AcDbText
 10
502.1971383101852
 20
-463.5579225247368
 30
0.0
 40
21.71788194444445
  1
入力選択スイッチ拡大図
 41
0.7
 72
     1
 11
600.0
 21
-452.6989815525145
 31
0.0
100
AcDbText
 73
     2
  0
LINE
  5
206
330
3A4
100
AcDbEntity
  8
DATA
  6
Continuous
 62
     7
100
AcDbLine
 10
431.25
 20
-475.0
 30
0.0
 11
768.75
 21
-475.0
 31
0.0
  0
TEXT
  5
207
330
3A4
100
AcDbEntity
  8
DATA
 62
     7
100
AcDbText
 10
-600.0
 20
-812.2670727777778
 30
0.0
 40
15.20251736111111
  1
※仕様及び外観は予告なく変更されることがあります。
 41
0.7
 11
-600.0
 21
-797.0645554166667
 31
0.0
100
AcDbText
 73
     3
  0
TEXT
  5
208
330
3A4
100
AcDbEntity
  8
DATA
 62
     7
100
AcDbText
 10
-600.0
 20
-832.0226283333333
 30
0.0
 40
15.20251736111111
  1
　また、同一商品でも若干の個体差があることがあります。ご了承ください。
 41
0.7
 11
-600.0
 21
-816.8201109722224
 31
0.0
100
AcDbText
 73
     3
  0
LINE
  5
209
330
3A4
100
AcDbEntity
  8
DATA
  6
Continuous
 62
     7
100
AcDbLine
 10
-216.4108109399997
 20
-83.00000045000002
 30
0.0
 11
-212.0540542
 21
-83.00000045000002
 31
0.0
  0
LINE
  5
20A
330
3A4
100
AcDbEntity
  8
DATA
  6
Continuous
 62
     7
100
AcDbLine
 10
-212.0540542
 20
-83.00000045000002
 30
0.0
 11
-212.0540542
 21
-316.99999955
 31
0.0
  0
LINE
  5
20B
330
3A4
100
AcDbEntity
  8
DATA
  6
Continuous
 62
     7
100
AcDbLine
 10
-250.0
 20
-120.94594625
 30
0.0
 11
-242.972973
 21
-91.08108149999997
 31
0.0
  0
LINE
  5
20C
330
3A4
100
AcDbEntity
  8
DATA
  6
Continuous
 62
     7
100
AcDbLine
 10
-250.0
 20
-279.05405375
 30
0.0
 11
-242.972973
 21
-308.9189185
 31
0.0
  0
LINE
  5
20D
330
3A4
100
AcDbEntity
  8
DATA
  6
Continuous
 62
     7
100
AcDbLine
 10
-250.0
 20
-120.94594625
 30
0.0
 11
-250.0
 21
-279.05405375
 31
0.0
  0
LINE
  5
20E
330
3A4
100
AcDbEntity
  8
DATA
  6
Continuous
 62
     7
100
AcDbLine
 10
-242.972973
 20
-91.08108149999997
 30
0.0
 11
-242.972973
 21
-308.9189185
 31
0.0
  0
ARC
  5
20F
330
3A4
100
AcDbEntity
  8
DATA
  6
Continuous
 62
     7
100
AcDbCircle
 10
-208.7113680855033
 20
-156.0026107866497
 30
0.0
 40
73.40751008060674
100
AcDbArc
 50
96.02061643136234
 51
117.822346157759
  0
ARC
  5
210
330
3A4
100
AcDbEntity
  8
DATA
  6
Continuous
 62
     7
100
AcDbCircle
 10
-200.7318994960634
 20
-927.8841924466961
 30
0.0
 40
844.96005176165
100
AcDbArc
 50
77.60122121210942
 51
90.76776540199869
  0
LINE
  5
211
330
3A4
100
AcDbEntity
  8
DATA
  6
Continuous
 62
     7
100
AcDbLine
 10
-216.4108109399997
 20
-316.99999955
 30
0.0
 11
-212.0540542
 21
-316.99999955
 31
0.0
  0
ARC
  5
212
330
3A4
100
AcDbEntity
  8
DATA
  6
Continuous
 62
     7
100
AcDbCircle
 10
-208.7113680855033
 20
-243.9973892133503
 30
0.0
 40
73.40751008060677
100
AcDbArc
 50
242.177653842241
 51
263.9793835686377
  0
ARC
  5
213
330
3A4
100
AcDbEntity
  8
DATA
  6
Continuous
 62
     7
100
AcDbCircle
 10
-200.7318994960636
 20
527.8841924466962
 30
0.0
 40
844.9600517616499
100
AcDbArc
 50
269.2322345980013
 51
282.3987787878905
  0
CIRCLE
  5
214
330
3A4
100
AcDbEntity
  8
DATA
  6
Continuous
 62
     7
100
AcDbCircle
 10
16.55104622446858
 20
-200.0
 30
0.0
 40
6.0
  0
CIRCLE
  5
215
330
3A4
100
AcDbEntity
  8
DATA
  6
Continuous
 62
     7
100
AcDbCircle
 10
15.49699217446859
 20
-183.6462961352431
 30
0.0
 40
3.75
  0
LINE
  5
216
330
3A4
100
AcDbEntity
  8
DATA
  6
Continuous
 62
     7
100
AcDbLine
 10
2.218212705714804
 20
-174.7469705641497
 30
0.0
 11
-192.484861336569
 21
-167.9477893961846
 31
0.0
  0
ARC
  5
217
330
3A4
100
AcDbEntity
  8
DATA
  6
Continuous
 62
     7
100
AcDbCircle
 10
1.972973000099855
 20
-181.7697168891651
 30
0.0
 40
7.02702700000006
100
AcDbArc
 50
0.0
 51
87.99999999999949
  0
LINE
  5
218
330
3A4
100
AcDbEntity
  8
DATA
  6
Continuous
 62
     7
100
AcDbLine
 10
2.218212705714804
 20
-146.6388625641497
 30
0.0
 11
-192.484861336569
 21
-139.8396813961846
 31
0.0
  0
ARC
  5
219
330
3A4
100
AcDbEntity
  8
DATA
  6
Continuous
 62
     7
100
AcDbCircle
 10
1.972973000099855
 20
-153.6616088891651
 30
0.0
 40
7.02702700000006
100
AcDbArc
 50
0.0
 51
87.99999999999949
  0
LINE
  5
21A
330
3A4
100
AcDbEntity
  8
DATA
  6
Continuous
 62
     7
100
AcDbLine
 10
2.218212705714804
 20
-118.5307545641497
 30
0.0
 11
-192.484861336569
 21
-111.7315733961847
 31
0.0
  0
ARC
  5
21B
330
3A4
100
AcDbEntity
  8
DATA
  6
Continuous
 62
     7
100
AcDbCircle
 10
1.972973000099855
 20
-125.5535008891651
 30
0.0
 40
7.02702700000006
100
AcDbArc
 50
0.0
 51
87.99999999999949
  0
LINE
  5
21C
330
3A4
100
AcDbEntity
  8
DATA
  6
Continuous
 62
     7
100
AcDbLine
 10
-250.35135135
 20
-192.62162165
 30
0.0
 11
-250.0
 21
-192.62162165
 31
0.0
  0
LINE
  5
21D
330
3A4
100
AcDbEntity
  8
DATA
  6
Continuous
 62
     7
100
AcDbLine
 10
-250.35135135
 20
-207.37837835
 30
0.0
 11
-250.0
 21
-207.37837835
 31
0.0
  0
LINE
  5
21E
330
3A4
100
AcDbEntity
  8
DATA
  6
Continuous
 62
     7
100
AcDbLine
 10
-250.35135135
 20
-192.62162165
 30
0.0
 11
-250.35135135
 21
-207.37837835
 31
0.0
  0
ARC
  5
21F
330
3A4
100
AcDbEntity
  8
DATA
  6
Continuous
 62
     7
100
AcDbCircle
 10
-34.16606861728356
 20
-175.2132604870292
 30
0.0
 40
74.0874228082192
100
AcDbArc
 50
58.83443026227998
 51
78.42999243612627
  0
ARC
  5
220
330
3A4
100
AcDbEntity
  8
DATA
  6
Continuous
 62
     7
100
AcDbCircle
 10
-34.16606861728356
 20
-224.7867395129707
 30
0.0
 40
74.0874228082192
100
AcDbArc
 50
281.5700075638739
 51
301.1655697377201
  0
LINE
  5
221
330
3A4
100
AcDbEntity
  8
DATA
  6
Continuous
 62
     7
100
AcDbLine
 10
9.000000000150166
 20
-120.3752293894131
 30
0.0
 11
9.000000000150166
 21
-279.6247706105869
 31
0.0
  0
ARC
  5
222
330
3A4
100
AcDbEntity
  8
DATA
  6
Continuous
 62
     7
100
AcDbCircle
 10
-0.9999999998499475
 20
-120.3752293894131
 30
0.0
 40
10.00000000000011
100
AcDbArc
 50
0.0
 51
58.83443026227934
  0
ARC
  5
223
330
3A4
100
AcDbEntity
  8
DATA
  6
Continuous
 62
     7
100
AcDbCircle
 10
-0.9999999998500044
 20
-279.6247706105869
 30
0.0
 40
10.00000000000021
100
AcDbArc
 50
301.1655697377207
 51
0.0
  0
LINE
  5
224
330
3A4
100
AcDbEntity
  8
DATA
  6
Continuous
 62
     7
100
AcDbLine
 10
2.218212705714804
 20
-225.2530294358503
 30
0.0
 11
-192.484861336569
 21
-232.0522106038154
 31
0.0
  0
ARC
  5
225
330
3A4
100
AcDbEntity
  8
DATA
  6
Continuous
 62
     7
100
AcDbCircle
 10
1.972973000099855
 20
-218.2302831108349
 30
0.0
 40
7.027027000000019
100
AcDbArc
 50
272.0000000000005
 51
0.0
  0
LINE
  5
226
330
3A4
100
AcDbEntity
  8
DATA
  6
Continuous
 62
     7
100
AcDbLine
 10
2.218212705714804
 20
-253.3611374358502
 30
0.0
 11
-192.484861336569
 21
-260.1603186038154
 31
0.0
  0
ARC
  5
227
330
3A4
100
AcDbEntity
  8
DATA
  6
Continuous
 62
     7
100
AcDbCircle
 10
1.972973000099855
 20
-246.3383911108349
 30
0.0
 40
7.027027000000019
100
AcDbArc
 50
272.0000000000005
 51
0.0
  0
LINE
  5
228
330
3A4
100
AcDbEntity
  8
DATA
  6
Continuous
 62
     7
100
AcDbLine
 10
2.218212705714804
 20
-281.4692454358503
 30
0.0
 11
-192.484861336569
 21
-288.2684266038154
 31
0.0
  0
ARC
  5
229
330
3A4
100
AcDbEntity
  8
DATA
  6
Continuous
 62
     7
100
AcDbCircle
 10
1.972973000099855
 20
-274.4464991108348
 30
0.0
 40
7.027027000000076
100
AcDbArc
 50
272.0000000000005
 51
0.0
  0
LINE
  5
22A
330
3A4
100
AcDbEntity
  8
DATA
  6
Continuous
 62
     7
100
AcDbLine
 10
9.000000000150166
 20
-200.0
 30
0.0
 11
-192.484861336569
 21
-200.0
 31
0.0
  0
LINE
  5
22B
330
3A4
100
AcDbEntity
  8
DATA
  6
Continuous
 62
     7
100
AcDbLine
 10
26.00685348526433
 20
-182.8906174379318
 30
0.0
 11
13.49958297988017
 21
-167.8083206520274
 31
0.0
  0
LINE
  5
22C
330
3A4
100
AcDbEntity
  8
DATA
  6
Continuous
 62
     7
100
AcDbLine
 10
29.00000000015017
 20
-191.1889837426606
 30
0.0
 11
29.00000000015017
 21
-208.8110162573395
 31
0.0
  0
LINE
  5
22D
330
3A4
100
AcDbEntity
  8
DATA
  6
Continuous
 62
     7
100
AcDbLine
 10
13.49958297988023
 20
-232.1916793479726
 30
0.0
 11
26.00685348526433
 21
-217.1093825620682
 31
0.0
  0
LINE
  5
22E
330
3A4
100
AcDbEntity
  8
DATA
  6
Continuous
 62
     7
100
AcDbLine
 10
9.65079317791317
 20
-166.0
 30
0.0
 11
9.000000000150166
 21
-166.0
 31
0.0
  0
LINE
  5
22F
330
3A4
100
AcDbEntity
  8
DATA
  6
Continuous
 62
     7
100
AcDbLine
 10
9.650793177913229
 20
-234.0
 30
0.0
 11
9.000000000150166
 21
-234.0
 31
0.0
  0
ARC
  5
230
330
3A4
100
AcDbEntity
  8
DATA
  6
Continuous
 62
     7
100
AcDbCircle
 10
16.00000000015016
 20
-191.1889837426606
 30
0.0
 40
13.0
100
AcDbArc
 50
0.0
 51
39.66784111834039
  0
ARC
  5
231
330
3A4
100
AcDbEntity
  8
DATA
  6
Continuous
 62
     7
100
AcDbCircle
 10
16.00000000015016
 20
-208.8110162573395
 30
0.0
 40
12.99999999999999
100
AcDbArc
 50
320.3321588816597
 51
0.0
  0
ARC
  5
232
330
3A4
100
AcDbEntity
  8
DATA
  6
Continuous
 62
     7
100
AcDbCircle
 10
9.650793177913286
 20
-171.0
 30
0.0
 40
4.999999999999936
100
AcDbArc
 50
39.6678411183413
 51
90.00000000000129
  0
ARC
  5
233
330
3A4
100
AcDbEntity
  8
DATA
  6
Continuous
 62
     7
100
AcDbCircle
 10
9.6507931779132
 20
-229.0000000000001
 30
0.0
 40
4.999999999999943
100
AcDbArc
 50
270.0000000000004
 51
320.3321588816602
  0
CIRCLE
  5
234
330
3A4
100
AcDbEntity
  8
DATA
  6
Continuous
 62
     7
100
AcDbCircle
 10
15.49699217446859
 20
-216.3537038647568
 30
0.0
 40
3.75
  0
CIRCLE
  5
235
330
3A4
100
AcDbEntity
  8
DATA
  6
Continuous
 62
     7
100
AcDbCircle
 10
-400.0
 20
-200.0
 30
0.0
 40
117.0
  0
LWPOLYLINE
  5
236
330
3A4
100
AcDbEntity
  8
DATA
  6
Continuous
 62
     7
100
AcDbPolyline
 90
        4
 70
     1
 43
0.0
 10
-405.508
 20
-193.196
 10
-394.492
 20
-193.196
 10
-394.492
 20
-206.804
 10
-405.508
 20
-206.804
  0
ARC
  5
23D
330
3A4
100
AcDbEntity
  8
DATA
  6
Continuous
 62
     7
100
AcDbCircle
 10
-402.395018712366
 20
-200.5803042898097
 30
0.0
 40
0.1998950688667295
100
AcDbArc
 50
217.6419024975322
 51
264.2670192893616
  0
LINE
  5
23E
330
3A4
100
AcDbEntity
  8
DATA
  6
Continuous
 62
     7
100
AcDbLine
 10
-399.2449959473328
 20
-195.4457567377609
 30
0.0
 11
-397.01212249909
 21
-196.3828678039753
 31
0.0
  0
LINE
  5
23F
330
3A4
100
AcDbEntity
  8
DATA
  6
Continuous
 62
     7
100
AcDbLine
 10
-399.2449959473328
 20
-195.4457567377609
 30
0.0
 11
-397.01212249909
 21
-194.5202085959881
 31
0.0
  0
LINE
  5
240
330
3A4
100
AcDbEntity
  8
DATA
  6
Continuous
 62
     7
100
AcDbLine
 10
-403.2826888990897
 20
-202.5493051783368
 30
0.0
 11
-397.01212249909
 21
-202.5493051783368
 31
0.0
  0
LINE
  5
241
330
3A4
100
AcDbEntity
  8
DATA
  6
Continuous
 62
     7
100
AcDbLine
 10
-397.01212249909
 20
-203.7525140003015
 30
0.0
 11
-402.3224394428593
 21
-203.7525140003015
 31
0.0
  0
LINE
  5
242
330
3A4
100
AcDbEntity
  8
DATA
  6
Continuous
 62
     7
100
AcDbLine
 10
-397.01212249909
 20
-196.8225034848456
 30
0.0
 11
-402.3224394428593
 21
-196.8225034848456
 31
0.0
  0
LINE
  5
243
330
3A4
100
AcDbEntity
  8
DATA
  6
Continuous
 62
     7
100
AcDbLine
 10
-397.01212249909
 20
-197.9794355267787
 30
0.0
 11
-402.3224394428593
 21
-197.9794355267787
 31
0.0
  0
LINE
  5
244
330
3A4
100
AcDbEntity
  8
DATA
  6
Continuous
 62
     7
100
AcDbLine
 10
-397.01212249909
 20
-198.5810399377611
 30
0.0
 11
-403.2826888990897
 21
-198.5810399377611
 31
0.0
  0
LINE
  5
245
330
3A4
100
AcDbEntity
  8
DATA
  6
Continuous
 62
     7
100
AcDbLine
 10
-397.6021514444981
 20
-199.6338492246215
 30
0.0
 11
-399.6152164581552
 21
-199.6338492246215
 31
0.0
  0
LINE
  5
246
330
3A4
100
AcDbEntity
  8
DATA
  6
Continuous
 62
     7
100
AcDbLine
 10
-399.4987344167088
 20
-201.890362708193
 30
0.0
 11
-398.0302242009265
 21
-201.890362708193
 31
0.0
  0
LINE
  5
247
330
3A4
100
AcDbEntity
  8
DATA
  6
Continuous
 62
     7
100
AcDbLine
 10
-397.8798183952562
 20
-200.7791995304136
 30
0.0
 11
-399.3375557779632
 21
-200.7791995304136
 31
0.0
  0
ARC
  5
248
330
3A4
100
AcDbEntity
  8
DATA
  6
Continuous
 62
     7
100
AcDbCircle
 10
-401.6725328588976
 20
-196.590342034452
 30
0.0
 40
1.617087163838388
100
AcDbArc
 50
174.6908562215451
 51
233.99119915424
  0
LINE
  5
249
330
3A4
100
AcDbEntity
  8
DATA
  6
Continuous
 62
     7
100
AcDbLine
 10
-401.3159006654642
 20
-195.9432383936712
 30
0.0
 11
-402.3224269017265
 21
-195.9432383936712
 31
0.0
  0
LINE
  5
24A
330
3A4
100
AcDbEntity
  8
DATA
  6
Continuous
 62
     7
100
AcDbLine
 10
-401.3159006654642
 20
-195.9432383936712
 30
0.0
 11
-401.3159006654642
 21
-194.9019983018184
 31
0.0
  0
LINE
  5
24B
330
3A4
100
AcDbEntity
  8
DATA
  6
Continuous
 62
     7
100
AcDbLine
 10
-401.3159006654642
 20
-194.9019983018184
 30
0.0
 11
-402.3224269017265
 21
-194.9019983018184
 31
0.0
  0
ARC
  5
24C
330
3A4
100
AcDbEntity
  8
DATA
  6
Continuous
 62
     7
100
AcDbCircle
 10
-402.3359964074161
 20
-196.385075043348
 30
0.0
 40
0.4376409047426472
100
AcDbArc
 50
179.7118487927593
 51
271.7759870056692
  0
ARC
  5
24D
330
3A4
100
AcDbEntity
  8
DATA
  6
Continuous
 62
     7
100
AcDbCircle
 10
-402.3359964074161
 20
-196.3806668351689
 30
0.0
 40
0.4376386669137465
100
AcDbArc
 50
88.22401299430994
 51
180.2881512072313
  0
ARC
  5
24E
330
3A4
100
AcDbEntity
  8
DATA
  6
Continuous
 62
     7
100
AcDbCircle
 10
-401.6725328588976
 20
-196.2910917941448
 30
0.0
 40
1.617084537586442
100
AcDbArc
 50
126.0088008457612
 51
185.3091437784601
  0
ARC
  5
24F
330
3A4
100
AcDbEntity
  8
DATA
  6
Continuous
 62
     7
100
AcDbCircle
 10
-402.2869793898674
 20
-195.63279519234
 30
0.0
 40
0.7316498180903124
100
AcDbArc
 50
92.77699544998151
 51
117.359606667138
  0
CIRCLE
  5
250
330
3A4
100
AcDbEntity
  8
DATA
  6
Continuous
 62
     7
100
AcDbCircle
 10
-400.1126981140656
 20
-195.509390445588
 30
0.0
 40
0.5958166781951491
  0
LINE
  5
251
330
3A4
100
AcDbEntity
  8
DATA
  6
Continuous
 62
     7
100
AcDbLine
 10
-403.2826826285234
 20
-205.6845883783368
 30
0.0
 11
-403.2826826285234
 21
-202.5493051783368
 31
0.0
  0
LINE
  5
252
330
3A4
100
AcDbEntity
  8
DATA
  6
Continuous
 62
     7
100
AcDbLine
 10
-403.2826826285234
 20
-205.6845883783368
 30
0.0
 11
-401.3158943948976
 21
-205.6845883783368
 31
0.0
  0
LINE
  5
253
330
3A4
100
AcDbEntity
  8
DATA
  6
Continuous
 62
     7
100
AcDbLine
 10
-401.3159006654642
 20
-205.6845883783368
 30
0.0
 11
-401.3159006654642
 21
-204.6317853620424
 31
0.0
  0
LINE
  5
254
330
3A4
100
AcDbEntity
  8
DATA
  6
Continuous
 62
     7
100
AcDbLine
 10
-401.3159006654642
 20
-204.6317853620424
 30
0.0
 11
-402.3224269017265
 21
-204.6317853620424
 31
0.0
  0
LINE
  5
255
330
3A4
100
AcDbEntity
  8
DATA
  6
Continuous
 62
     7
100
AcDbLine
 10
-403.2826826285234
 20
-198.5810399377611
 30
0.0
 11
-403.2826763579568
 21
-200.7791995304136
 31
0.0
  0
LINE
  5
256
330
3A4
100
AcDbEntity
  8
DATA
  6
Continuous
 62
     7
100
AcDbLine
 10
-402.6926474125492
 20
-199.6338429540552
 30
0.0
 11
-402.6926474125492
 21
-200.2007397800138
 31
0.0
  0
LINE
  5
257
330
3A4
100
AcDbEntity
  8
DATA
  6
Continuous
 62
     7
100
AcDbLine
 10
-402.6926474125492
 20
-199.6338492246215
 30
0.0
 11
-400.2168145985711
 21
-199.6338492246215
 31
0.0
  0
LINE
  5
258
330
3A4
100
AcDbEntity
  8
DATA
  6
Continuous
 62
     7
100
AcDbLine
 10
-400.2168145985711
 20
-199.6338429540552
 30
0.0
 11
-400.2168145985711
 21
-200.2007397800138
 31
0.0
  0
LINE
  5
259
330
3A4
100
AcDbEntity
  8
DATA
  6
Continuous
 62
     7
100
AcDbLine
 10
-402.4149867323569
 20
-200.7791995304136
 30
0.0
 11
-400.4944752787632
 21
-200.7791995304136
 31
0.0
  0
ARC
  5
25A
330
3A4
100
AcDbEntity
  8
DATA
  6
Continuous
 62
     7
100
AcDbCircle
 10
-402.2869793898674
 20
-197.2486386362568
 30
0.0
 40
0.7316487769811113
100
AcDbArc
 50
242.6403933328657
 51
267.2230045500212
  0
ARC
  5
25B
330
3A4
100
AcDbEntity
  8
DATA
  6
Continuous
 62
     7
100
AcDbCircle
 10
-402.3359964074161
 20
-204.1943506499785
 30
0.0
 40
0.4376409047426472
100
AcDbArc
 50
179.7118487927593
 51
271.7759870056692
  0
ARC
  5
25C
330
3A4
100
AcDbEntity
  8
DATA
  6
Continuous
 62
     7
100
AcDbCircle
 10
-402.3359964074161
 20
-204.1899487123657
 30
0.0
 40
0.4376386669137465
100
AcDbArc
 50
88.22401299430994
 51
180.2881512072238
  0
LINE
  5
25D
330
3A4
100
AcDbEntity
  8
DATA
  6
Continuous
 62
     7
100
AcDbLine
 10
-402.2761501216945
 20
-201.8898547923144
 30
0.0
 11
-400.6101734994096
 21
-201.8898547923144
 31
0.0
  0
LINE
  5
25E
330
3A4
100
AcDbEntity
  8
DATA
  6
Continuous
 62
     7
100
AcDbLine
 10
-399.6152164581552
 20
-199.6338429540552
 30
0.0
 11
-399.6152164581552
 21
-200.2007397800138
 31
0.0
  0
ARC
  5
25F
330
3A4
100
AcDbEntity
  8
DATA
  6
Continuous
 62
     7
100
AcDbCircle
 10
-402.0922971148464
 20
-200.6994880903369
 30
0.0
 40
1.193045119057654
100
AcDbArc
 50
183.8309816091109
 51
261.135147309802
  0
LINE
  5
260
330
3A4
100
AcDbEntity
  8
DATA
  6
Continuous
 62
     7
100
AcDbLine
 10
-397.01212249909
 20
-196.8225034848456
 30
0.0
 11
-397.01212249909
 21
-197.9794355267787
 31
0.0
  0
LINE
  5
261
330
3A4
100
AcDbEntity
  8
DATA
  6
Continuous
 62
     7
100
AcDbLine
 10
-397.01212249909
 20
-194.5202085959881
 30
0.0
 11
-397.01212249909
 21
-196.3828678039753
 31
0.0
  0
LINE
  5
262
330
3A4
100
AcDbEntity
  8
DATA
  6
Continuous
 62
     7
100
AcDbLine
 10
-397.01212249909
 20
-202.5493051783368
 30
0.0
 11
-397.01212249909
 21
-203.7525140003015
 31
0.0
  0
LINE
  5
263
330
3A4
100
AcDbEntity
  8
DATA
  6
Continuous
 62
     7
100
AcDbLine
 10
-397.01212249909
 20
-198.5810399377611
 30
0.0
 11
-397.0121275743236
 21
-200.7912829922216
 31
0.0
  0
LINE
  5
264
330
3A4
100
AcDbEntity
  8
DATA
  6
Continuous
 62
     7
100
AcDbLine
 10
-397.6021577150643
 20
-199.6338429540552
 30
0.0
 11
-397.6021577150643
 21
-200.2007397800138
 31
0.0
  0
ARC
  5
265
330
3A4
100
AcDbEntity
  8
DATA
  6
Continuous
 62
     7
100
AcDbCircle
 10
-398.2006832779442
 20
-200.7113833547976
 30
0.0
 40
1.191238268639078
100
AcDbArc
 50
278.2269238590229
 51
356.1541266921585
  0
ARC
  5
266
330
3A4
100
AcDbEntity
  8
DATA
  6
Continuous
 62
     7
100
AcDbCircle
 10
-401.5929857323747
 20
-200.2074338997241
 30
0.0
 40
1.099682054997051
100
AcDbArc
 50
179.6512199376245
 51
192.8264828068772
  0
ARC
  5
267
330
3A4
100
AcDbEntity
  8
DATA
  6
Continuous
 62
     7
100
AcDbCircle
 10
-402.057909523866
 20
-200.3309456003064
 30
0.0
 40
0.6191794940985728
100
AcDbArc
 50
191.2331036226561
 51
216.8620088940701
  0
ARC
  5
268
330
3A4
100
AcDbEntity
  8
DATA
  6
Continuous
 62
     7
100
AcDbCircle
 10
-400.5144432987539
 20
-200.5803042898097
 30
0.0
 40
0.1998950688666903
100
AcDbArc
 50
275.7329807106061
 51
322.3580975024806
  0
ARC
  5
269
330
3A4
100
AcDbEntity
  8
DATA
  6
Continuous
 62
     7
100
AcDbCircle
 10
-401.3164762787454
 20
-200.2074338997241
 30
0.0
 40
1.099682054996942
100
AcDbArc
 50
347.1735171931228
 51
0.3487800623756243
  0
ARC
  5
26A
330
3A4
100
AcDbEntity
  8
DATA
  6
Continuous
 62
     7
100
AcDbCircle
 10
-400.8515524872542
 20
-200.3309456003064
 30
0.0
 40
0.6191794940984927
100
AcDbArc
 50
323.1379911059677
 51
348.7668963773471
  0
ARC
  5
26B
330
3A4
100
AcDbEntity
  8
DATA
  6
Continuous
 62
     7
100
AcDbCircle
 10
-400.651189274232
 20
-201.2830646229193
 30
0.0
 40
0.6081748132394642
100
AcDbArc
 50
273.8670063598141
 51
358.3616345678872
  0
ARC
  5
26C
330
3A4
100
AcDbEntity
  8
DATA
  6
Continuous
 62
     7
100
AcDbCircle
 10
-399.4347495571632
 20
-201.2825065425097
 30
0.0
 40
0.6087791554008441
100
AcDbArc
 50
181.6892821046454
 51
266.0782829826627
  0
ARC
  5
26D
330
3A4
100
AcDbEntity
  8
DATA
  6
Continuous
 62
     7
100
AcDbCircle
 10
-399.3175877579723
 20
-200.5803042898097
 30
0.0
 40
0.1998950688666395
100
AcDbArc
 50
217.6419024975522
 51
264.2670192893599
  0
ARC
  5
26E
330
3A4
100
AcDbEntity
  8
DATA
  6
Continuous
 62
     7
100
AcDbCircle
 10
-398.5155547779813
 20
-200.2074338997241
 30
0.0
 40
1.099682054996596
100
AcDbArc
 50
179.6512199376243
 51
192.8264828068812
  0
ARC
  5
26F
330
3A4
100
AcDbEntity
  8
DATA
  6
Continuous
 62
     7
100
AcDbCircle
 10
-398.9804785694722
 20
-200.3309456003064
 30
0.0
 40
0.6191794940984613
100
AcDbArc
 50
191.2331036226581
 51
216.8620088940701
  0
ARC
  5
270
330
3A4
100
AcDbEntity
  8
DATA
  6
Continuous
 62
     7
100
AcDbCircle
 10
-397.8997864152469
 20
-200.5803042898097
 30
0.0
 40
0.1998950688666903
100
AcDbArc
 50
275.7329807106061
 51
322.3580975023892
  0
ARC
  5
271
330
3A4
100
AcDbEntity
  8
DATA
  6
Continuous
 62
     7
100
AcDbCircle
 10
-398.7018193952382
 20
-200.2074338997241
 30
0.0
 40
1.099682054996831
100
AcDbArc
 50
347.1735171931215
 51
0.3487800623756243
  0
ARC
  5
272
330
3A4
100
AcDbEntity
  8
DATA
  6
Continuous
 62
     7
100
AcDbCircle
 10
-398.2368956037472
 20
-200.3309456003064
 30
0.0
 40
0.6191794940983108
100
AcDbArc
 50
323.1379911059552
 51
348.7668963773377
  0
ARC
  5
273
330
3A4
100
AcDbEntity
  8
DATA
  6
Continuous
 62
     7
100
AcDbCircle
 10
-400.0
 20
-200.0
 30
0.0
 40
81.49999999999996
100
AcDbArc
 50
344.9627956956575
 51
182.830858958982
  0
CIRCLE
  5
274
330
3A4
100
AcDbEntity
  8
DATA
  6
Continuous
 62
     7
100
AcDbCircle
 10
-400.0
 20
-200.0
 30
0.0
 40
105.0
  0
CIRCLE
  5
275
330
3A4
100
AcDbEntity
  8
DATA
  6
Continuous
 62
     7
100
AcDbCircle
 10
-400.0
 20
-200.0
 30
0.0
 40
112.5
  0
CIRCLE
  5
276
330
3A4
100
AcDbEntity
  8
DATA
  6
Continuous
 62
     7
100
AcDbCircle
 10
-399.9808406633098
 20
-300.011791571245
 30
0.0
 40
4.000000000000147
  0
ARC
  5
277
330
3A4
100
AcDbEntity
  8
DATA
  6
Continuous
 62
     7
100
AcDbCircle
 10
-400.108291562309
 20
-300.6674696055327
 30
0.0
 40
5.999999999999649
100
AcDbArc
 50
8.871147791118355
 51
183.9651883646795
  0
LINE
  5
278
330
3A4
100
AcDbEntity
  8
DATA
  6
Continuous
 62
     7
100
AcDbLine
 10
-394.1800656779108
 20
-299.7421924235234
 30
0.0
 11
-393.8377097382312
 21
-304.8190163030053
 31
0.0
  0
LINE
  5
279
330
3A4
100
AcDbEntity
  8
DATA
  6
Continuous
 62
     7
100
AcDbLine
 10
-406.0939290539462
 20
-301.0823717852145
 30
0.0
 11
-406.1622874713881
 21
-304.8190164670514
 31
0.0
  0
LINE
  5
27A
330
3A4
100
AcDbEntity
  8
DATA
  6
Continuous
 62
     7
100
AcDbLine
 10
-399.5992226725568
 20
-298.0485372043497
 30
0.0
 11
-400.3624586540627
 21
-301.9750459381404
 31
0.0
  0
LINE
  5
27B
330
3A4
100
AcDbEntity
  8
DATA
  6
Continuous
 62
     7
100
AcDbLine
 10
-398.0175862964143
 20
-300.3934095619982
 30
0.0
 11
-401.944095030205
 21
-299.630173580492
 31
0.0
  0
CIRCLE
  5
27C
330
3A4
100
AcDbEntity
  8
DATA
  6
Continuous
 62
     7
100
AcDbCircle
 10
-499.8140953254588
 20
-200.0191579414999
 30
0.0
 40
4.000000000000147
  0
ARC
  5
27D
330
3A4
100
AcDbEntity
  8
DATA
  6
Continuous
 62
     7
100
AcDbCircle
 10
-500.4697733597465
 20
-199.8917070425005
 30
0.0
 40
5.999999999999667
100
AcDbArc
 50
278.8711477911195
 51
93.96518836467949
  0
LINE
  5
27E
330
3A4
100
AcDbEntity
  8
DATA
  6
Continuous
 62
     7
100
AcDbLine
 10
-499.5444961777373
 20
-205.8199329268988
 30
0.0
 11
-504.8182348734179
 21
-206.1755678296738
 31
0.0
  0
LINE
  5
27F
330
3A4
100
AcDbEntity
  8
DATA
  6
Continuous
 62
     7
100
AcDbLine
 10
-500.8846755394284
 20
-193.9060695508634
 30
0.0
 11
-504.8188039277448
 21
-193.8340983538304
 31
0.0
  0
LINE
  5
280
330
3A4
100
AcDbEntity
  8
DATA
  6
Continuous
 62
     7
100
AcDbLine
 10
-497.8508409585633
 20
-200.4007759322529
 30
0.0
 11
-501.7773496923542
 21
-199.6375399507468
 31
0.0
  0
LINE
  5
281
330
3A4
100
AcDbEntity
  8
DATA
  6
Continuous
 62
     7
100
AcDbLine
 10
-500.1957133162121
 20
-201.9824123083953
 30
0.0
 11
-499.4324773347059
 21
-198.0559035746046
 31
0.0
  0
ARC
  5
282
330
3A4
100
AcDbEntity
  8
DATA
  6
Continuous
 62
     7
100
AcDbCircle
 10
-373.3830338659459
 20
-322.1556764963692
 30
0.0
 40
113.6520526344078
100
AcDbArc
 50
50.35984254618782
 51
107.2048231679619
  0
ARC
  5
283
330
3A4
100
AcDbEntity
  8
DATA
  6
Continuous
 62
     7
100
AcDbCircle
 10
-437.981281914616
 20
-160.428489860402
 30
0.0
 40
61.52964004797883
100
AcDbArc
 50
184.8814615483326
 51
300.2330238939572
  0
LINE
  5
284
330
3A4
100
AcDbEntity
  8
DATA
  6
Continuous
 62
     7
100
AcDbLine
 10
-392.0
 20
-289.5322921359072
 30
0.0
 11
-408.0
 21
-289.5322921359072
 31
0.0
  0
LINE
  5
285
330
3A4
100
AcDbEntity
  8
DATA
  6
Continuous
 62
     7
100
AcDbLine
 10
-399.5770122430009
 20
-239.5322921359072
 30
0.0
 11
-400.4229877569991
 21
-239.5322921359072
 31
0.0
  0
LINE
  5
286
330
3A4
100
AcDbEntity
  8
DATA
  6
Continuous
 62
     7
100
AcDbLine
 10
-392.0
 20
-289.5322921359072
 30
0.0
 11
-396.5910507889877
 21
-242.2424056147542
 31
0.0
  0
LINE
  5
287
330
3A4
100
AcDbEntity
  8
DATA
  6
Continuous
 62
     7
100
AcDbLine
 10
-408.0
 20
-289.5322921359072
 30
0.0
 11
-403.4089492110124
 21
-242.2424056147542
 31
0.0
  0
ARC
  5
288
330
3A4
100
AcDbEntity
  8
DATA
  6
Continuous
 62
     7
100
AcDbCircle
 10
-399.5770122430008
 20
-242.5322921359072
 30
0.0
 40
2.999999999999845
100
AcDbArc
 50
5.545076858669523
 51
90.00000000000218
  0
ARC
  5
289
330
3A4
100
AcDbEntity
  8
DATA
  6
Continuous
 62
     7
100
AcDbCircle
 10
-400.4229877569991
 20
-242.5322921359072
 30
0.0
 40
3.0
100
AcDbArc
 50
90.0
 51
174.4549231413307
  0
LINE
  5
28A
330
3A4
100
AcDbEntity
  8
DATA
  6
Continuous
 62
     7
100
AcDbLine
 10
-331.2708174971163
 20
-257.9979240961468
 30
0.0
 11
-342.5845259961011
 21
-269.3116325951316
 31
0.0
  0
LINE
  5
28B
330
3A4
100
AcDbEntity
  8
DATA
  6
Continuous
 62
     7
100
AcDbLine
 10
-371.9839132946031
 20
-228.0003417749789
 30
0.0
 11
-372.5821083172689
 21
-228.5985367976448
 31
0.0
  0
LINE
  5
28C
330
3A4
100
AcDbEntity
  8
DATA
  6
Continuous
 62
     7
100
AcDbLine
 10
-331.2708174971163
 20
-257.9979240961468
 30
0.0
 11
-367.9561800834308
 21
-227.8052878011621
 31
0.0
  0
LINE
  5
28D
330
3A4
100
AcDbEntity
  8
DATA
  6
Continuous
 62
     7
100
AcDbLine
 10
-342.5845259961011
 20
-269.3116325951316
 30
0.0
 11
-372.7771622910857
 21
-232.626270008817
 31
0.0
  0
ARC
  5
28E
330
3A4
100
AcDbEntity
  8
DATA
  6
Continuous
 62
     7
100
AcDbCircle
 10
-369.8625929510433
 20
-230.1216621185384
 30
0.0
 40
2.999999999999762
100
AcDbArc
 50
50.54507685867012
 51
135.0000000000038
  0
ARC
  5
28F
330
3A4
100
AcDbEntity
  8
DATA
  6
Continuous
 62
     7
100
AcDbCircle
 10
-370.4607879737093
 20
-230.7198571412044
 30
0.0
 40
2.999999999999984
100
AcDbArc
 50
135.0000000000007
 51
219.4549231413303
  0
LINE
  5
290
330
3A4
100
AcDbEntity
  8
DATA
  6
Continuous
 62
     7
100
AcDbLine
 10
-457.747011255898
 20
-269.1773155369385
 30
0.0
 11
-469.0607197548827
 21
-257.8636070379537
 31
0.0
  0
LINE
  5
291
330
3A4
100
AcDbEntity
  8
DATA
  6
Continuous
 62
     7
100
AcDbLine
 10
-427.7494289347302
 20
-228.4642197394516
 30
0.0
 11
-428.347623957396
 21
-227.8660247167857
 31
0.0
  0
LINE
  5
292
330
3A4
100
AcDbEntity
  8
DATA
  6
Continuous
 62
     7
100
AcDbLine
 10
-457.747011255898
 20
-269.1773155369385
 30
0.0
 11
-427.5543749609134
 21
-232.4919529506239
 31
0.0
  0
LINE
  5
293
330
3A4
100
AcDbEntity
  8
DATA
  6
Continuous
 62
     7
100
AcDbLine
 10
-469.0607197548827
 20
-257.8636070379537
 30
0.0
 11
-432.3753571685683
 21
-227.6709707429692
 31
0.0
  0
ARC
  5
294
330
3A4
100
AcDbEntity
  8
DATA
  6
Continuous
 62
     7
100
AcDbCircle
 10
-429.8707492782897
 20
-230.5855400830114
 30
0.0
 40
2.999999999999806
100
AcDbArc
 50
320.5450768586708
 51
45.00000000000306
  0
ARC
  5
295
330
3A4
100
AcDbEntity
  8
DATA
  6
Continuous
 62
     7
100
AcDbCircle
 10
-430.4689443009556
 20
-229.9873450603454
 30
0.0
 40
3.000000000000024
100
AcDbArc
 50
45.0
 51
129.4549231413309
  0
LINE
  5
296
330
3A4
100
AcDbEntity
  8
DATA
  6
Continuous
 62
     7
100
AcDbLine
 10
-489.5702966805829
 20
-208.3015185583887
 30
0.0
 11
-489.5702966805829
 21
-193.9616102029928
 31
0.0
  0
LINE
  5
297
330
3A4
100
AcDbEntity
  8
DATA
  6
Continuous
 62
     7
100
AcDbLine
 10
-489.5702966805829
 20
-208.3015185583887
 30
0.0
 11
-477.9872042352381
 21
-207.1769955446504
 31
0.0
  0
ARC
  5
298
330
3A4
100
AcDbEntity
  8
DATA
  6
Continuous
 62
     7
100
AcDbCircle
 10
-379.8605700380715
 20
-174.7386175753753
 30
0.0
 40
130.0000000000003
100
AcDbArc
 50
235.1175147001971
 51
249.1009391646209
  0
ARC
  5
299
330
3A4
100
AcDbEntity
  8
DATA
  6
Continuous
 62
     7
100
AcDbCircle
 10
-386.7542243091572
 20
-175.9541548190444
 30
0.0
 40
117.9999999999999
100
AcDbArc
 50
237.4180214854759
 51
250.9939321328821
  0
LINE
  5
29A
330
3A4
100
AcDbEntity
  8
DATA
  6
Continuous
 62
     7
100
AcDbLine
 10
-422.7068950583428
 20
-295.1040577367392
 30
0.0
 11
-422.715663398071
 21
-295.1165802236445
 31
0.0
  0
ARC
  5
29B
330
3A4
100
AcDbEntity
  8
DATA
  6
Continuous
 62
     7
100
AcDbCircle
 10
-426.8114236195165
 20
-292.2486980418895
 30
0.0
 40
5.000000000000313
100
AcDbArc
 50
325.0000000000015
 51
70.99393213287604
  0
LINE
  5
29C
330
3A4
100
AcDbEntity
  8
DATA
  6
Continuous
 62
     7
100
AcDbLine
 10
-455.0944035827597
 20
-277.4289380880699
 30
0.0
 11
-454.5165748535627
 21
-276.4202196956158
 31
0.0
  0
ARC
  5
29D
330
3A4
100
AcDbEntity
  8
DATA
  6
Continuous
 62
     7
100
AcDbCircle
 10
-425.1643511912104
 20
-293.3833284276861
 30
0.0
 40
3.000000000000474
100
AcDbArc
 50
249.1009391646306
 51
325.000000000004
  0
ARC
  5
29E
330
3A4
100
AcDbEntity
  8
DATA
  6
Continuous
 62
     7
100
AcDbCircle
 10
-451.9134234739162
 20
-277.9113947003157
 30
0.0
 40
2.999999999999423
100
AcDbArc
 50
57.41802148546423
 51
150.1944289077329
  0
ARC
  5
29F
330
3A4
100
AcDbEntity
  8
DATA
  6
Continuous
 62
     7
100
AcDbCircle
 10
-452.4912522031132
 20
-278.9201130927697
 30
0.0
 40
2.999999999999423
100
AcDbArc
 50
150.1944289077329
 51
235.117514700208
  0
CIRCLE
  5
2A0
330
3A4
100
AcDbEntity
  8
DATA
  6
Continuous
 62
     7
100
AcDbCircle
 10
233.1345841764064
 20
-163.3049405963074
 30
0.0
 40
3.5
  0
LWPOLYLINE
  5
2A1
330
3A4
100
AcDbEntity
  8
DATA
  6
Continuous
 62
     7
100
AcDbPolyline
 90
        6
 70
     1
 43
0.0
 10
234.4345841764065
 20
-163.3049405963074
 10
233.7845841764063
 20
-162.1791075713877
 10
232.4845841764064
 20
-162.1791075713877
 10
231.8345841764064
 20
-163.3049405963074
 10
232.4845841764064
 20
-164.4307736212272
 10
233.7845841764063
 20
-164.4307736212272
  0
CIRCLE
  5
2AA
330
3A4
100
AcDbEntity
  8
DATA
  6
Continuous
 62
     7
100
AcDbCircle
 10
233.1345841764064
 20
-237.3049405963075
 30
0.0
 40
3.5
  0
LWPOLYLINE
  5
2AB
330
3A4
100
AcDbEntity
  8
DATA
  6
Continuous
 62
     7
100
AcDbPolyline
 90
        6
 70
     1
 43
0.0
 10
234.4345841764065
 20
-237.3049405963075
 10
233.7845841764063
 20
-236.1791075713877
 10
232.4845841764064
 20
-236.1791075713877
 10
231.8345841764064
 20
-237.3049405963075
 10
232.4845841764064
 20
-238.4307736212272
 10
233.7845841764063
 20
-238.4307736212272
  0
LINE
  5
2B4
330
3A4
100
AcDbEntity
  8
DATA
  6
Continuous
 62
     7
100
AcDbLine
 10
211.0248519031507
 20
-205.9999999996779
 30
0.0
 11
211.0248519031507
 21
-193.9999999996779
 31
0.0
  0
LINE
  5
2B5
330
3A4
100
AcDbEntity
  8
DATA
  6
Continuous
 62
     7
100
AcDbLine
 10
202.0248519031507
 20
-205.9999999996779
 30
0.0
 11
211.0248519031507
 21
-205.9999999996779
 31
0.0
  0
LINE
  5
2B6
330
3A4
100
AcDbEntity
  8
DATA
  6
Continuous
 62
     7
100
AcDbLine
 10
202.0248519031507
 20
-193.9999999996779
 30
0.0
 11
211.0248519031507
 21
-193.9999999996779
 31
0.0
  0
LINE
  5
2B7
330
3A4
100
AcDbEntity
  8
DATA
  6
Continuous
 62
     7
100
AcDbLine
 10
202.0248519031507
 20
-205.9999999996779
 30
0.0
 11
202.0248519031507
 21
-193.9999999996779
 31
0.0
  0
LWPOLYLINE
  5
2B8
330
3A4
100
AcDbEntity
  8
DATA
  6
Continuous
 62
     7
100
AcDbPolyline
 90
        4
 70
     1
 43
0.0
 10
206.0248519031506
 20
-196.9999999996779
 10
207.0248519031506
 20
-196.9999999996779
 10
207.0248519031506
 20
-197.9999999996779
 10
206.0248519031506
 20
-197.9999999996779
  0
LWPOLYLINE
  5
2BF
330
3A4
100
AcDbEntity
  8
DATA
  6
Continuous
 62
     7
100
AcDbPolyline
 90
        4
 70
     1
 43
0.0
 10
206.0248519031506
 20
-201.9999999996779
 10
207.0248519031506
 20
-201.9999999996779
 10
207.0248519031506
 20
-202.999999999678
 10
206.0248519031506
 20
-202.999999999678
  0
LINE
  5
2C6
330
3A4
100
AcDbEntity
  8
DATA
  6
Continuous
 62
     7
100
AcDbLine
 10
214.8248519031507
 20
-201.8082026504766
 30
0.0
 11
214.8248519031507
 21
-203.8082026504766
 31
0.0
  0
LINE
  5
2C7
330
3A4
100
AcDbEntity
  8
DATA
  6
Continuous
 62
     7
100
AcDbLine
 10
213.8248519031507
 20
-197.1917973488793
 30
0.0
 11
215.8248519031507
 21
-197.1917973488793
 31
0.0
  0
LINE
  5
2C8
330
3A4
100
AcDbEntity
  8
DATA
  6
Continuous
 62
     7
100
AcDbLine
 10
214.8248519031507
 20
-196.1917973488793
 30
0.0
 11
214.8248519031507
 21
-198.1917973488793
 31
0.0
  0
LINE
  5
2C9
330
3A4
100
AcDbEntity
  8
DATA
  6
Continuous
 62
     7
100
AcDbLine
 10
203.5248519031506
 20
-194.5999999996779
 30
0.0
 11
209.5248519031507
 21
-194.5999999996779
 31
0.0
  0
LINE
  5
2CA
330
3A4
100
AcDbEntity
  8
DATA
  6
Continuous
 62
     7
100
AcDbLine
 10
203.5248519031506
 20
-205.399999999678
 30
0.0
 11
209.5248519031507
 21
-205.399999999678
 31
0.0
  0
LINE
  5
2CB
330
3A4
100
AcDbEntity
  8
DATA
  6
Continuous
 62
     7
100
AcDbLine
 10
209.5248519031507
 20
-205.399999999678
 30
0.0
 11
209.5248519031507
 21
-194.5999999996779
 31
0.0
  0
LINE
  5
2CC
330
3A4
100
AcDbEntity
  8
DATA
  6
Continuous
 62
     7
100
AcDbLine
 10
203.5248519031506
 20
-205.399999999678
 30
0.0
 11
203.5248519031506
 21
-204.8999999996776
 31
0.0
  0
LINE
  5
2CD
330
3A4
100
AcDbEntity
  8
DATA
  6
Continuous
 62
     7
100
AcDbLine
 10
203.5248519031506
 20
-200.4999999996784
 30
0.0
 11
203.5248519031506
 21
-199.4999999996774
 31
0.0
  0
LINE
  5
2CE
330
3A4
100
AcDbEntity
  8
DATA
  6
Continuous
 62
     7
100
AcDbLine
 10
203.5248519031506
 20
-195.0999999996782
 30
0.0
 11
203.5248519031506
 21
-194.5999999996779
 31
0.0
  0
LINE
  5
2CF
330
3A4
100
AcDbEntity
  8
DATA
  6
Continuous
 62
     7
100
AcDbLine
 10
203.5248519031506
 20
-194.5999999996779
 30
0.0
 11
203.5248519031506
 21
-195.0999999996782
 31
0.0
  0
LINE
  5
2D0
330
3A4
100
AcDbEntity
  8
DATA
  6
Continuous
 62
     7
100
AcDbLine
 10
203.5248519031506
 20
-199.4999999996774
 30
0.0
 11
203.5248519031506
 21
-199.9999999996779
 31
0.0
  0
ARC
  5
2D1
330
3A4
100
AcDbEntity
  8
DATA
  6
Continuous
 62
     7
100
AcDbCircle
 10
205.1255661888649
 20
-197.2999999996781
 30
0.0
 40
2.7207142857145
100
AcDbArc
 50
126.0395385635507
 51
233.9604614364436
  0
ARC
  5
2D2
330
3A4
100
AcDbEntity
  8
DATA
  6
Continuous
 62
     7
100
AcDbCircle
 10
205.1255661888649
 20
-202.6999999996777
 30
0.0
 40
2.720714285714132
100
AcDbArc
 50
126.0395385635564
 51
233.9604614364493
  0
LINE
  5
2D3
330
3A4
100
AcDbEntity
  8
DATA
  6
Continuous
 62
     7
100
AcDbLine
 10
171.2178716682391
 20
-205.9999999996779
 30
0.0
 11
171.2178716682391
 21
-193.9999999996779
 31
0.0
  0
LINE
  5
2D4
330
3A4
100
AcDbEntity
  8
DATA
  6
Continuous
 62
     7
100
AcDbLine
 10
162.217871668239
 20
-205.9999999996779
 30
0.0
 11
171.2178716682391
 21
-205.9999999996779
 31
0.0
  0
LINE
  5
2D5
330
3A4
100
AcDbEntity
  8
DATA
  6
Continuous
 62
     7
100
AcDbLine
 10
162.217871668239
 20
-193.9999999996779
 30
0.0
 11
171.2178716682391
 21
-193.9999999996779
 31
0.0
  0
LINE
  5
2D6
330
3A4
100
AcDbEntity
  8
DATA
  6
Continuous
 62
     7
100
AcDbLine
 10
162.217871668239
 20
-205.9999999996779
 30
0.0
 11
162.217871668239
 21
-193.9999999996779
 31
0.0
  0
LWPOLYLINE
  5
2D7
330
3A4
100
AcDbEntity
  8
DATA
  6
Continuous
 62
     7
100
AcDbPolyline
 90
        4
 70
     1
 43
0.0
 10
166.217871668239
 20
-196.9999999996779
 10
167.217871668239
 20
-196.9999999996779
 10
167.217871668239
 20
-197.9999999996779
 10
166.217871668239
 20
-197.9999999996779
  0
LWPOLYLINE
  5
2DE
330
3A4
100
AcDbEntity
  8
DATA
  6
Continuous
 62
     7
100
AcDbPolyline
 90
        4
 70
     1
 43
0.0
 10
166.217871668239
 20
-201.9999999996779
 10
167.217871668239
 20
-201.9999999996779
 10
167.217871668239
 20
-202.999999999678
 10
166.217871668239
 20
-202.999999999678
  0
LINE
  5
2E5
330
3A4
100
AcDbEntity
  8
DATA
  6
Continuous
 62
     7
100
AcDbLine
 10
175.0178716682391
 20
-201.8082026504766
 30
0.0
 11
175.0178716682391
 21
-203.8082026504766
 31
0.0
  0
LINE
  5
2E6
330
3A4
100
AcDbEntity
  8
DATA
  6
Continuous
 62
     7
100
AcDbLine
 10
174.0178716682391
 20
-197.1917973488793
 30
0.0
 11
176.0178716682391
 21
-197.1917973488793
 31
0.0
  0
LINE
  5
2E7
330
3A4
100
AcDbEntity
  8
DATA
  6
Continuous
 62
     7
100
AcDbLine
 10
175.0178716682391
 20
-196.1917973488793
 30
0.0
 11
175.0178716682391
 21
-198.1917973488793
 31
0.0
  0
LINE
  5
2E8
330
3A4
100
AcDbEntity
  8
DATA
  6
Continuous
 62
     7
100
AcDbLine
 10
163.717871668239
 20
-194.5999999996779
 30
0.0
 11
169.7178716682391
 21
-194.5999999996779
 31
0.0
  0
LINE
  5
2E9
330
3A4
100
AcDbEntity
  8
DATA
  6
Continuous
 62
     7
100
AcDbLine
 10
163.717871668239
 20
-205.399999999678
 30
0.0
 11
169.7178716682391
 21
-205.399999999678
 31
0.0
  0
LINE
  5
2EA
330
3A4
100
AcDbEntity
  8
DATA
  6
Continuous
 62
     7
100
AcDbLine
 10
169.7178716682391
 20
-205.399999999678
 30
0.0
 11
169.7178716682391
 21
-194.5999999996779
 31
0.0
  0
LINE
  5
2EB
330
3A4
100
AcDbEntity
  8
DATA
  6
Continuous
 62
     7
100
AcDbLine
 10
163.717871668239
 20
-205.399999999678
 30
0.0
 11
163.717871668239
 21
-204.8999999996776
 31
0.0
  0
LINE
  5
2EC
330
3A4
100
AcDbEntity
  8
DATA
  6
Continuous
 62
     7
100
AcDbLine
 10
163.717871668239
 20
-200.4999999996784
 30
0.0
 11
163.717871668239
 21
-199.4999999996774
 31
0.0
  0
LINE
  5
2ED
330
3A4
100
AcDbEntity
  8
DATA
  6
Continuous
 62
     7
100
AcDbLine
 10
163.717871668239
 20
-195.0999999996782
 30
0.0
 11
163.717871668239
 21
-194.5999999996779
 31
0.0
  0
LINE
  5
2EE
330
3A4
100
AcDbEntity
  8
DATA
  6
Continuous
 62
     7
100
AcDbLine
 10
163.717871668239
 20
-194.5999999996779
 30
0.0
 11
163.717871668239
 21
-195.0999999996782
 31
0.0
  0
LINE
  5
2EF
330
3A4
100
AcDbEntity
  8
DATA
  6
Continuous
 62
     7
100
AcDbLine
 10
163.717871668239
 20
-199.4999999996774
 30
0.0
 11
163.717871668239
 21
-199.9999999996779
 31
0.0
  0
ARC
  5
2F0
330
3A4
100
AcDbEntity
  8
DATA
  6
Continuous
 62
     7
100
AcDbCircle
 10
165.3185859539533
 20
-197.2999999996781
 30
0.0
 40
2.7207142857145
100
AcDbArc
 50
126.0395385635507
 51
233.9604614364436
  0
ARC
  5
2F1
330
3A4
100
AcDbEntity
  8
DATA
  6
Continuous
 62
     7
100
AcDbCircle
 10
165.3185859539533
 20
-202.6999999996777
 30
0.0
 40
2.720714285714132
100
AcDbArc
 50
126.0395385635564
 51
233.9604614364493
  0
TEXT
  5
2F2
330
3A4
100
AcDbEntity
  8
DATA
 62
     7
100
AcDbText
 10
238.6745841764064
 20
-201.0132739296409
 30
0.0
 40
5.429470486111111
  1
C65P/T
 50
90.0
 41
0.7
 11
233.2451136902953
 21
-201.0132739296409
 31
0.0
100
AcDbText
 73
     3
  0
CIRCLE
  5
2F3
330
3A4
100
AcDbEntity
  8
DATA
  6
Continuous
 62
     7
100
AcDbCircle
 10
225.0
 20
-200.0
 30
0.0
 40
117.0
  0
LWPOLYLINE
  5
2F4
330
3A4
100
AcDbEntity
  8
DATA
  6
Continuous
 62
     7
100
AcDbPolyline
 90
       16
 70
     1
 43
0.0
 10
225.0
 20
-112.5
 10
191.5151996680546
 20
-119.1605409052624
 10
163.1281566461771
 20
-138.1281566461771
 10
144.1605409052624
 20
-166.5151996680546
 10
137.5
 20
-200.0
 10
144.1605409052624
 20
-233.4848003319454
 10
163.128156646177
 20
-261.8718433538229
 10
191.5151996680546
 20
-280.8394590947376
 10
225.0
 20
-287.5
 10
258.4848003319454
 20
-280.8394590947376
 10
286.8718433538228
 20
-261.8718433538229
 10
305.8394590947376
 20
-233.4848003319454
 10
312.5
 20
-200.0
 10
305.8394590947376
 20
-166.5151996680546
 10
286.871843353823
 20
-138.1281566461771
 10
258.4848003319454
 20
-119.1605409052624
  0
LINE
  5
307
330
3A4
100
AcDbEntity
  8
DATA
  6
Continuous
 62
     7
100
AcDbLine
 10
208.5
 20
-153.5
 30
0.0
 11
288.803333061095
 21
-153.5
 31
0.0
  0
LINE
  5
308
330
3A4
100
AcDbEntity
  8
DATA
  6
Continuous
 62
     7
100
AcDbLine
 10
288.803333061095
 20
-246.5
 30
0.0
 11
208.5
 21
-246.5
 31
0.0
  0
LINE
  5
309
330
3A4
100
AcDbEntity
  8
DATA
  6
Continuous
 62
     7
100
AcDbLine
 10
156.8041450037336
 20
-162.0
 30
0.0
 11
208.5
 21
-162.0
 31
0.0
  0
LINE
  5
30A
330
3A4
100
AcDbEntity
  8
DATA
  6
Continuous
 62
     7
100
AcDbLine
 10
208.5
 20
-238.0
 30
0.0
 11
156.8041450037336
 21
-238.0
 31
0.0
  0
LINE
  5
30B
330
3A4
100
AcDbEntity
  8
DATA
  6
Continuous
 62
     7
100
AcDbLine
 10
208.5
 20
-153.5
 30
0.0
 11
208.5
 21
-162.0
 31
0.0
  0
LINE
  5
30C
330
3A4
100
AcDbEntity
  8
DATA
  6
Continuous
 62
     7
100
AcDbLine
 10
208.5
 20
-238.0
 30
0.0
 11
208.5
 21
-246.5
 31
0.0
  0
CIRCLE
  5
30D
330
3A4
100
AcDbEntity
  8
DATA
  6
Continuous
 62
     7
100
AcDbCircle
 10
282.0050985163468
 20
-200.0
 30
0.0
 40
10.08152640000026
  0
TEXT
  5
30E
330
3A4
100
AcDbEntity
  8
DATA
 62
     7
100
AcDbText
 10
273.6739880387292
 20
-204.363458643282
 30
0.0
 40
2.394759064414063
  1
30
 50
13.99999999999999
 41
0.7
 11
273.0946433863617
 21
-202.0398341576204
 31
0.0
100
AcDbText
 73
     3
  0
TEXT
  5
30F
330
3A4
100
AcDbEntity
  8
DATA
 62
     7
100
AcDbText
 10
287.8650207650421
 20
-203.3923458711308
 30
0.0
 40
2.394759064414063
  1
30
 50
355.0
 41
0.7
 11
288.0737377700027
 21
-201.0066995879543
 31
0.0
100
AcDbText
 73
     3
  0
TEXT
  5
310
330
3A4
100
AcDbEntity
  8
DATA
 62
     7
100
AcDbText
 10
283.0294495804384
 20
-210.1471860564446
 30
0.0
 40
2.394759064414063
  1
8Ω
 50
90.0
 41
0.7
 11
280.6346905160243
 21
-210.1471860564446
 31
0.0
100
AcDbText
 73
     3
  0
TEXT
  5
311
330
3A4
100
AcDbEntity
  8
DATA
 62
     7
100
AcDbText
 10
283.1973513682312
 20
-194.5418167993571
 30
0.0
 40
2.394759064414063
  1
8Ω
 50
90.0
 41
0.7
 11
280.8025923038172
 21
-194.5418167993571
 31
0.0
100
AcDbText
 73
     3
  0
TEXT
  5
312
330
3A4
100
AcDbEntity
  8
DATA
 62
     7
100
AcDbText
 10
285.105048929769
 20
-206.6922237510413
 30
0.0
 40
2.394759064414063
  1
15
 50
329.9999999999999
 41
0.7
 11
286.302428461976
 21
-204.6183015653157
 31
0.0
100
AcDbText
 73
     3
  0
CIRCLE
  5
313
330
3A4
100
AcDbEntity
  8
DATA
  6
Continuous
 62
     7
100
AcDbCircle
 10
286.9127268689437
 20
-193.0
 30
0.0
 40
0.5240783107434366
  0
TEXT
  5
314
330
3A4
100
AcDbEntity
  8
DATA
 62
     7
100
AcDbText
 10
274.9771736786331
 20
-193.2839326566273
 30
0.0
 40
2.394759064414063
  1
7.5
 50
300.0
 41
0.7
 11
277.0510958643587
 21
-192.0865531244202
 31
0.0
100
AcDbText
 73
     3
  0
TEXT
  5
315
330
3A4
100
AcDbEntity
  8
DATA
 62
     7
100
AcDbText
 10
272.294911807115
 20
-197.744700706509
 30
0.0
 40
2.394759064414063
  1
15
 50
329.9999999999999
 41
0.7
 11
273.4922913393221
 21
-195.6707785207834
 31
0.0
100
AcDbText
 73
     3
  0
TEXT
  5
316
330
3A4
100
AcDbEntity
  8
DATA
 62
     7
100
AcDbText
 10
276.525358550969
 20
-208.0532109517726
 30
0.0
 40
2.394759064414063
  1
60
 50
30.00000000000003
 41
0.7
 11
275.327979018762
 21
-205.979288766047
 31
0.0
100
AcDbText
 73
     3
  0
TEXT
  5
317
330
3A4
100
AcDbEntity
  8
DATA
 62
     7
100
AcDbText
 10
288.0337470626908
 20
-198.5910877172964
 30
0.0
 40
2.394759064414063
  1
60
 50
20.00000000000002
 41
0.7
 11
287.2146912242494
 21
-196.3407502959063
 31
0.0
100
AcDbText
 73
     3
  0
LWPOLYLINE
  5
318
330
3A4
100
AcDbEntity
  8
DATA
  6
Continuous
 62
     7
100
AcDbPolyline
 90
        4
 70
     1
 43
0.0
 10
280.1075091626897
 20
-195.7715703361932
 10
281.6960476204365
 20
-195.4914681461996
 10
283.2366096654023
 20
-204.2284296638068
 10
281.6480712076554
 20
-204.5085318538004
  0
LINE
  5
31F
330
3A4
100
AcDbEntity
  8
DATA
  6
Continuous
 62
     7
100
AcDbLine
 10
280.9969458763467
 20
-187.0452385759999
 30
0.0
 11
282.0050985163466
 21
-189.0615438559998
 31
0.0
  0
LINE
  5
320
330
3A4
100
AcDbEntity
  8
DATA
  6
Continuous
 62
     7
100
AcDbLine
 10
282.0050985163466
 20
-189.0615438559998
 30
0.0
 11
283.0132511563465
 21
-187.0452385759999
 31
0.0
  0
LINE
  5
321
330
3A4
100
AcDbEntity
  8
DATA
  6
Continuous
 62
     7
100
AcDbLine
 10
280.9969458763467
 20
-187.0452385759999
 30
0.0
 11
283.0132511563465
 21
-187.0452385759999
 31
0.0
  0
LINE
  5
322
330
3A4
100
AcDbEntity
  8
DATA
  6
Continuous
 62
     7
100
AcDbLine
 10
280.9969458763467
 20
-212.954761424
 30
0.0
 11
282.0050985163466
 21
-210.9384561440001
 31
0.0
  0
LINE
  5
323
330
3A4
100
AcDbEntity
  8
DATA
  6
Continuous
 62
     7
100
AcDbLine
 10
282.0050985163466
 20
-210.9384561440001
 30
0.0
 11
283.0132511563465
 21
-212.954761424
 31
0.0
  0
LINE
  5
324
330
3A4
100
AcDbEntity
  8
DATA
  6
Continuous
 62
     7
100
AcDbLine
 10
280.9969458763467
 20
-212.954761424
 30
0.0
 11
283.0132511563465
 21
-212.954761424
 31
0.0
  0
TEXT
  5
325
330
3A4
100
AcDbEntity
  8
DATA
 62
     7
100
AcDbText
 10
277.6431460313894
 20
-198.6765392288813
 30
0.0
 40
2.394759064414063
  1
70V
 50
280.0
 41
0.7
 11
280.0015233246206
 21
-198.2606936813944
 31
0.0
100
AcDbText
 73
     3
  0
TEXT
  5
326
330
3A4
100
AcDbEntity
  8
DATA
 62
     7
100
AcDbText
 10
282.4546531449474
 20
-196.5882484974299
 30
0.0
 40
2.394759064414063
  1
100V
 50
279.9999999999999
 41
0.7
 11
284.8130304381787
 21
-196.172402949943
 31
0.0
100
AcDbText
 73
     3
  0
LWPOLYLINE
  5
327
330
3A4
100
AcDbEntity
  8
DATA
  6
Continuous
 62
     7
100
AcDbPolyline
 90
        4
 70
     1
 43
0.0
 10
224.0
 20
-166.0
 10
226.0
 20
-166.0
 10
226.0
 20
-234.0
 10
224.0
 20
-234.0
  0
ARC
  5
32E
330
3A4
100
AcDbEntity
  8
DATA
  6
Continuous
 62
     7
100
AcDbCircle
 10
224.2983611920061
 20
-200.0
 30
0.0
 40
81.70163880799382
100
AcDbArc
 50
327.2443407765759
 51
32.75565922342412
  0
ARC
  5
32F
330
3A4
100
AcDbEntity
  8
DATA
  6
Continuous
 62
     7
100
AcDbCircle
 10
288.803333061095
 20
-158.5
 30
0.0
 40
5.000000000000017
100
AcDbArc
 50
32.75565922342392
 51
90.0
  0
ARC
  5
330
330
3A4
100
AcDbEntity
  8
DATA
  6
Continuous
 62
     7
100
AcDbCircle
 10
288.803333061095
 20
-241.4999999999999
 30
0.0
 40
5.000000000000113
100
AcDbArc
 50
270.0
 51
327.2443407765755
  0
ARC
  5
331
330
3A4
100
AcDbEntity
  8
DATA
  6
Continuous
 62
     7
100
AcDbCircle
 10
226.0438835635517
 20
-200.0
 30
0.0
 40
81.70163880799389
100
AcDbArc
 50
154.5173014668832
 51
205.4826985331168
  0
ARC
  5
332
330
3A4
100
AcDbEntity
  8
DATA
  6
Continuous
 62
     7
100
AcDbCircle
 10
156.8041450037336
 20
-167.0
 30
0.0
 40
5.0
100
AcDbArc
 50
90.0
 51
154.517301466883
  0
ARC
  5
333
330
3A4
100
AcDbEntity
  8
DATA
  6
Continuous
 62
     7
100
AcDbCircle
 10
156.8041450037336
 20
-233.0
 30
0.0
 40
4.999999999999988
100
AcDbArc
 50
205.4826985331169
 51
270.0
  0
ENDSEC
  0
SECTION
  2
OBJECTS
  0
DICTIONARY
  5
341
330
0
100
AcDbDictionary
281
     1
  3
ACAD_CIP_PREVIOUS_PRODUCT_INFO
350
3BD
  3
ACAD_COLOR
350
397
  3
ACAD_DETAILVIEWSTYLE
350
39E
  3
ACAD_GROUP
350
342
  3
ACAD_LAYOUT
350
396
  3
ACAD_MATERIAL
350
345
  3
ACAD_MLEADERSTYLE
350
39A
  3
ACAD_MLINESTYLE
350
393
  3
ACAD_PLOTSETTINGS
350
395
  3
ACAD_PLOTSTYLENAME
350
343
  3
ACAD_SCALELIST
350
377
  3
ACAD_SECTIONVIEWSTYLE
350
39C
  3
ACAD_TABLESTYLE
350
398
  3
ACAD_VISUALSTYLE
350
35E
  3
ACDB_RECOMPOSE_DATA
350
3D7
  3
AcDbVariableDictionary
350
3CA
  3
DWGPROPS
350
3D8
  0
DICTIONARY
  5
3BE
330
389
100
AcDbDictionary
280
     1
281
     1
  3
ADSK_XREC_LAYER_RECONCILED
360
3BF
  0
DICTIONARY
  5
3C0
330
3A8
100
AcDbDictionary
280
     1
281
     1
  3
ADSK_XREC_LAYER_RECONCILED
360
3C1
  0
DICTIONARY
  5
3C2
330
3B4
100
AcDbDictionary
280
     1
281
     1
  3
ADSK_XREC_LAYER_RECONCILED
360
3C3
  0
DICTIONARY
  5
3C4
330
3B5
100
AcDbDictionary
280
     1
281
     1
  3
ADSK_XREC_LAYER_RECONCILED
360
3C5
  0
DICTIONARY
  5
3C6
330
3B6
100
AcDbDictionary
280
     1
281
     1
  3
ADSK_XREC_LAYER_RECONCILED
360
3C7
  0
DICTIONARY
  5
3C8
330
3B7
100
AcDbDictionary
280
     1
281
     1
  3
ADSK_XREC_LAYER_RECONCILED
360
3C9
  0
XRECORD
  5
3BD
102
{ACAD_REACTORS
330
341
102
}
330
341
100
AcDbXrecord
280
     1
300
ACDLT
300
2017
300
ACDLT_F_S
  0
DICTIONARY
  5
397
102
{ACAD_REACTORS
330
341
102
}
330
341
100
AcDbDictionary
281
     1
  0
DICTIONARY
  5
39E
102
{ACAD_REACTORS
330
341
102
}
330
341
100
AcDbDictionary
281
     1
  3
Imperial24
350
39F
  0
DICTIONARY
  5
342
102
{ACAD_REACTORS
330
341
102
}
330
341
100
AcDbDictionary
281
     1
  0
DICTIONARY
  5
396
102
{ACAD_REACTORS
330
341
102
}
330
341
100
AcDbDictionary
281
     1
  3
Model
350
3A7
  3
レイアウト1
350
3A3
  0
DICTIONARY
  5
345
102
{ACAD_REACTORS
330
341
102
}
330
341
100
AcDbDictionary
281
     1
  3
ByBlock
350
34E
  3
ByLayer
350
346
  3
Global
350
356
  0
DICTIONARY
  5
39A
102
{ACAD_REACTORS
330
341
102
}
330
341
100
AcDbDictionary
281
     1
  3
Standard
350
39B
  0
DICTIONARY
  5
393
102
{ACAD_REACTORS
330
341
102
}
330
341
100
AcDbDictionary
281
     1
  3
Standard
350
394
  0
DICTIONARY
  5
395
102
{ACAD_REACTORS
330
341
102
}
330
341
100
AcDbDictionary
281
     1
  0
ACDBDICTIONARYWDFLT
  5
343
102
{ACAD_REACTORS
330
341
102
}
330
341
100
AcDbDictionary
281
     1
  3
Normal
350
344
100
AcDbDictionaryWithDefault
340
344
  0
DICTIONARY
  5
377
102
{ACAD_REACTORS
330
341
102
}
330
341
100
AcDbDictionary
281
     1
  3
A0
350
378
  3
A1
350
379
  3
A2
350
37A
  3
A3
350
37B
  3
A4
350
37C
  3
A5
350
37D
  3
A6
350
37E
  3
A7
350
37F
  3
A8
350
380
  3
A9
350
381
  3
B0
350
382
  3
B1
350
383
  3
B2
350
384
  3
B3
350
385
  3
B4
350
386
  3
B5
350
387
  3
B6
350
388
  0
DICTIONARY
  5
39C
102
{ACAD_REACTORS
330
341
102
}
330
341
100
AcDbDictionary
281
     1
  3
Imperial24
350
39D
  0
DICTIONARY
  5
398
102
{ACAD_REACTORS
330
341
102
}
330
341
100
AcDbDictionary
281
     1
  3
Standard
350
399
  0
DICTIONARY
  5
35E
102
{ACAD_REACTORS
330
341
102
}
330
341
100
AcDbDictionary
281
     1
  3
2dWireframe
350
364
  3
Basic
350
363
  3
Brighten
350
36A
  3
ColorChange
350
36E
  3
Conceptual
350
367
  3
Dim
350
369
  3
EdgeColorOff
350
376
  3
Facepattern
350
36D
  3
Flat
350
35F
  3
FlatWithEdges
350
360
  3
Gouraud
350
361
  3
GouraudWithEdges
350
362
  3
Hidden
350
366
  3
JitterOff
350
374
  3
Linepattern
350
36C
  3
OverhangOff
350
375
  3
Realistic
350
368
  3
Shaded
350
373
  3
Shaded with edges
350
372
  3
Shades of Gray
350
36F
  3
Sketchy
350
370
  3
Thicken
350
36B
  3
Wireframe
350
365
  3
X-Ray
350
371
  0
XRECORD
  5
3D7
102
{ACAD_REACTORS
330
341
102
}
330
341
100
AcDbXrecord
280
     1
 90
        1
330
399
  0
DICTIONARY
  5
3CA
102
{ACAD_REACTORS
330
341
102
}
330
341
100
AcDbDictionary
281
     1
  3
CANNOSCALE
350
3CF
  3
CMLEADERSTYLE
350
3CC
  3
CTABLESTYLE
350
3CB
  3
CVIEWDETAILSTYLE
350
3CD
  3
CVIEWSECTIONSTYLE
350
3CE
  3
DIMASSOC
350
3D2
  3
INDEXCTL
350
3D1
  3
SORTENTS
350
3D0
  3
XCLIPFRAME
350
3D3
  0
XRECORD
  5
3D8
102
{ACAD_REACTORS
330
341
102
}
330
341
100
AcDbXrecord
280
     1
  1
DWGPROPS COOKIE
  2

  3

  4

  6

  7

  8
sasaki_n
  9

300
=
301
=
302
=
303
=
304
=
305
=
306
=
307
=
308
=
309
=
 40
0.0002777777777778
 41
2457823.498252315
 42
2457823.549548611
  1

 90
        0
  0
XRECORD
  5
3BF
102
{ACAD_REACTORS
330
3BE
102
}
330
3BE
100
AcDbXrecord
280
     1
290
     1
  0
XRECORD
  5
3C1
102
{ACAD_REACTORS
330
3C0
102
}
330
3C0
100
AcDbXrecord
280
     1
290
     1
  0
XRECORD
  5
3C3
102
{ACAD_REACTORS
330
3C2
102
}
330
3C2
100
AcDbXrecord
280
     1
290
     1
  0
XRECORD
  5
3C5
102
{ACAD_REACTORS
330
3C4
102
}
330
3C4
100
AcDbXrecord
280
     1
290
     1
  0
XRECORD
  5
3C7
102
{ACAD_REACTORS
330
3C6
102
}
330
3C6
100
AcDbXrecord
280
     1
290
     1
  0
XRECORD
  5
3C9
102
{ACAD_REACTORS
330
3C8
102
}
330
3C8
100
AcDbXrecord
280
     1
290
     1
  0
ACDBDETAILVIEWSTYLE
  5
39F
102
{ACAD_XDICTIONARY
360
410
102
}
102
{ACAD_REACTORS
330
39E
102
}
330
39E
100
AcDbModelDocViewStyle
 70
     0
  3
Imperial24
290
     0
100
AcDbDetailViewStyle
 70
     0
 71
     0
 90
        3
 71
     1
340
38A
 40
0.24
340
0
 40
0.24
300

 40
0.36
280
     3
 71
     2
340
391
 90
       25
 71
     3
340
38A
 40
0.24
 90
        1
 40
0.75
 90
        1
300
%<\AcVar ViewType \f "%tc1">% %<\AcVar ViewDetailId>%\PSCALE %<\AcVar ViewScale \f "%sn">%
 71
     4
340
391
 90
       25
340
391
 90
       25
280
     0
  0
LAYOUT
  5
3A7
102
{ACAD_XDICTIONARY
360
414
102
}
102
{ACAD_REACTORS
330
396
102
}
330
396
100
AcDbPlotSettings
  1

  2
DocuPrint 3000-2
  4

  6

 40
0.0
 41
0.0
 42
0.0
 43
0.0
 44
0.0
 45
0.0
 46
0.0
 47
0.0
 48
0.0
 49
0.0
140
0.0
141
0.0
142
1.0
143
1.0
 70
  1712
 72
     0
 73
     0
 74
     0
  7

 75
     0
147
1.0
148
0.0
149
0.0
100
AcDbLayout
  1
Model
 70
     1
 71
     0
 10
0.0
 20
0.0
 11
12.0
 21
9.0
 12
0.0
 22
0.0
 32
0.0
 14
0.0
 24
0.0
 34
0.0
 15
0.0
 25
0.0
 35
0.0
146
0.0
 13
0.0
 23
0.0
 33
0.0
 16
1.0
 26
0.0
 36
0.0
 17
0.0
 27
1.0
 37
0.0
 76
     0
330
3A4
331
3A9
  0
LAYOUT
  5
3A3
102
{ACAD_XDICTIONARY
360
412
102
}
102
{ACAD_REACTORS
330
396
102
}
330
396
100
AcDbPlotSettings
  1

  2
DocuPrint 3000-2
  4

  6

 40
0.0
 41
0.0
 42
0.0
 43
0.0
 44
0.0
 45
0.0
 46
0.0
 47
0.0
 48
0.0
 49
0.0
140
0.0
141
0.0
142
1.0
143
1.0
 70
   688
 72
     0
 73
     0
 74
     5
  7

 75
    16
147
1.0
148
0.0
149
0.0
100
AcDbLayout
  1
レイアウト1
 70
     0
 71
     1
 10
0.0
 20
0.0
 11
12.0
 21
9.0
 12
0.0
 22
0.0
 32
0.0
 14
1.000000000000000E+20
 24
1.000000000000000E+20
 34
1.000000000000000E+20
 15
-1.000000000000000E+20
 25
-1.000000000000000E+20
 35
-1.000000000000000E+20
146
0.0
 13
0.0
 23
0.0
 33
0.0
 16
1.0
 26
0.0
 36
0.0
 17
0.0
 27
1.0
 37
0.0
 76
     0
330
3A0
  0
MATERIAL
  5
34E
102
{ACAD_XDICTIONARY
360
34F
102
}
102
{ACAD_REACTORS
330
345
102
}
330
345
100
AcDbMaterial
  1
ByBlock
 72
     0
 43
0.0208333333333333
 43
0.0
 43
0.0
 43
0.0
 43
0.0
 43
0.0208333333333333
 43
0.0
 43
0.0
 43
0.0
 43
0.0
 43
1.0
 43
0.0
 43
0.0
 43
0.0
 43
0.0
 43
1.0
 77
     0
 47
0.0208333333333333
 47
0.0
 47
0.0
 47
0.0
 47
0.0
 47
0.0208333333333333
 47
0.0
 47
0.0
 47
0.0
 47
0.0
 47
1.0
 47
0.0
 47
0.0
 47
0.0
 47
0.0
 47
1.0
171
     0
 49
0.0208333333333333
 49
0.0
 49
0.0
 49
0.0
 49
0.0
 49
0.0208333333333333
 49
0.0
 49
0.0
 49
0.0
 49
0.0
 49
1.0
 49
0.0
 49
0.0
 49
0.0
 49
0.0
 49
1.0
175
     0
142
0.0208333333333333
142
0.0
142
0.0
142
0.0
142
0.0
142
0.0208333333333333
142
0.0
142
0.0
142
0.0
142
0.0
142
1.0
142
0.0
142
0.0
142
0.0
142
0.0
142
1.0
179
     0
144
0.0208333333333333
144
0.0
144
0.0
144
0.0
144
0.0
144
0.0208333333333333
144
0.0
144
0.0
144
0.0
144
0.0
144
1.0
144
0.0
144
0.0
144
0.0
144
0.0
144
1.0
147
0.0208333333333333
147
0.0
147
0.0
147
0.0
147
0.0
147
0.0208333333333333
147
0.0
147
0.0
147
0.0
147
0.0
147
1.0
147
0.0
147
0.0
147
0.0
147
0.0
147
1.0
  0
MATERIAL
  5
346
102
{ACAD_XDICTIONARY
360
347
102
}
102
{ACAD_REACTORS
330
345
102
}
330
345
100
AcDbMaterial
  1
ByLayer
 72
     0
 43
0.0208333333333333
 43
0.0
 43
0.0
 43
0.0
 43
0.0
 43
0.0208333333333333
 43
0.0
 43
0.0
 43
0.0
 43
0.0
 43
1.0
 43
0.0
 43
0.0
 43
0.0
 43
0.0
 43
1.0
 77
     0
 47
0.0208333333333333
 47
0.0
 47
0.0
 47
0.0
 47
0.0
 47
0.0208333333333333
 47
0.0
 47
0.0
 47
0.0
 47
0.0
 47
1.0
 47
0.0
 47
0.0
 47
0.0
 47
0.0
 47
1.0
171
     0
 49
0.0208333333333333
 49
0.0
 49
0.0
 49
0.0
 49
0.0
 49
0.0208333333333333
 49
0.0
 49
0.0
 49
0.0
 49
0.0
 49
1.0
 49
0.0
 49
0.0
 49
0.0
 49
0.0
 49
1.0
175
     0
142
0.0208333333333333
142
0.0
142
0.0
142
0.0
142
0.0
142
0.0208333333333333
142
0.0
142
0.0
142
0.0
142
0.0
142
1.0
142
0.0
142
0.0
142
0.0
142
0.0
142
1.0
179
     0
144
0.0208333333333333
144
0.0
144
0.0
144
0.0
144
0.0
144
0.0208333333333333
144
0.0
144
0.0
144
0.0
144
0.0
144
1.0
144
0.0
144
0.0
144
0.0
144
0.0
144
1.0
147
0.0208333333333333
147
0.0
147
0.0
147
0.0
147
0.0
147
0.0208333333333333
147
0.0
147
0.0
147
0.0
147
0.0
147
1.0
147
0.0
147
0.0
147
0.0
147
0.0
147
1.0
  0
MATERIAL
  5
356
102
{ACAD_XDICTIONARY
360
357
102
}
102
{ACAD_REACTORS
330
345
102
}
330
345
100
AcDbMaterial
  1
Global
 72
     0
 43
0.0208333333333333
 43
0.0
 43
0.0
 43
0.0
 43
0.0
 43
0.0208333333333333
 43
0.0
 43
0.0
 43
0.0
 43
0.0
 43
1.0
 43
0.0
 43
0.0
 43
0.0
 43
0.0
 43
1.0
 77
     0
 47
0.0208333333333333
 47
0.0
 47
0.0
 47
0.0
 47
0.0
 47
0.0208333333333333
 47
0.0
 47
0.0
 47
0.0
 47
0.0
 47
1.0
 47
0.0
 47
0.0
 47
0.0
 47
0.0
 47
1.0
171
     0
 49
0.0208333333333333
 49
0.0
 49
0.0
 49
0.0
 49
0.0
 49
0.0208333333333333
 49
0.0
 49
0.0
 49
0.0
 49
0.0
 49
1.0
 49
0.0
 49
0.0
 49
0.0
 49
0.0
 49
1.0
175
     0
142
0.0208333333333333
142
0.0
142
0.0
142
0.0
142
0.0
142
0.0208333333333333
142
0.0
142
0.0
142
0.0
142
0.0
142
1.0
142
0.0
142
0.0
142
0.0
142
0.0
142
1.0
179
     0
144
0.0208333333333333
144
0.0
144
0.0
144
0.0
144
0.0
144
0.0208333333333333
144
0.0
144
0.0
144
0.0
144
0.0
144
1.0
144
0.0
144
0.0
144
0.0
144
0.0
144
1.0
147
0.0208333333333333
147
0.0
147
0.0
147
0.0
147
0.0
147
0.0208333333333333
147
0.0
147
0.0
147
0.0
147
0.0
147
1.0
147
0.0
147
0.0
147
0.0
147
0.0
147
1.0
  0
MLEADERSTYLE
  5
39B
102
{ACAD_REACTORS
330
39A
102
}
330
39A
100
AcDbMLeaderStyle
170
     2
171
     1
172
     0
 90
        2
 40
0.0
 41
0.0
173
     1
 91
-1056964608
340
38F
 92
       -2
290
     1
 42
0.09
291
     1
 43
0.36
  3
Standard
 44
0.18
300

342
38A
174
     1
178
     6
175
     1
176
     0
 93
-1056964608
 45
0.18
292
     0
297
     0
 46
0.18
 94
-1056964608
 47
1.0
 49
1.0
140
1.0
293
     1
141
0.0
294
     1
177
     0
142
1.0
295
     0
296
     0
143
0.125
1001
ACAD_MLEADERVER
1070
     2
  0
MLINESTYLE
  5
394
102
{ACAD_REACTORS
330
393
102
}
330
393
100
AcDbMlineStyle
  2
STANDARD
 70
     0
  3

 62
   256
 51
90.0
 52
90.0
 71
     2
 49
0.5
 62
   256
  6
BYLAYER
 49
-0.5
 62
   256
  6
BYLAYER
  0
ACDBPLACEHOLDER
  5
344
102
{ACAD_REACTORS
330
343
102
}
330
343
  0
SCALE
  5
378
102
{ACAD_REACTORS
330
377
102
}
330
377
100
AcDbScale
 70
     0
300
1:1
140
1.0
141
1.0
290
     1
  0
SCALE
  5
379
102
{ACAD_REACTORS
330
377
102
}
330
377
100
AcDbScale
 70
     0
300
1/128" = 1'-0"
140
0.0078125
141
12.0
290
     0
  0
SCALE
  5
37A
102
{ACAD_REACTORS
330
377
102
}
330
377
100
AcDbScale
 70
     0
300
1/64" = 1'-0"
140
0.015625
141
12.0
290
     0
  0
SCALE
  5
37B
102
{ACAD_REACTORS
330
377
102
}
330
377
100
AcDbScale
 70
     0
300
1/32" = 1'-0"
140
0.03125
141
12.0
290
     0
  0
SCALE
  5
37C
102
{ACAD_REACTORS
330
377
102
}
330
377
100
AcDbScale
 70
     0
300
1/16" = 1'-0"
140
0.0625
141
12.0
290
     0
  0
SCALE
  5
37D
102
{ACAD_REACTORS
330
377
102
}
330
377
100
AcDbScale
 70
     0
300
3/32" = 1'-0"
140
0.09375
141
12.0
290
     0
  0
SCALE
  5
37E
102
{ACAD_REACTORS
330
377
102
}
330
377
100
AcDbScale
 70
     0
300
1/8" = 1'-0"
140
0.125
141
12.0
290
     0
  0
SCALE
  5
37F
102
{ACAD_REACTORS
330
377
102
}
330
377
100
AcDbScale
 70
     0
300
3/16" = 1'-0"
140
0.1875
141
12.0
290
     0
  0
SCALE
  5
380
102
{ACAD_REACTORS
330
377
102
}
330
377
100
AcDbScale
 70
     0
300
1/4" = 1'-0"
140
0.25
141
12.0
290
     0
  0
SCALE
  5
381
102
{ACAD_REACTORS
330
377
102
}
330
377
100
AcDbScale
 70
     0
300
3/8" = 1'-0"
140
0.375
141
12.0
290
     0
  0
SCALE
  5
382
102
{ACAD_REACTORS
330
377
102
}
330
377
100
AcDbScale
 70
     0
300
1/2" = 1'-0"
140
0.5
141
12.0
290
     0
  0
SCALE
  5
383
102
{ACAD_REACTORS
330
377
102
}
330
377
100
AcDbScale
 70
     0
300
3/4" = 1'-0"
140
0.75
141
12.0
290
     0
  0
SCALE
  5
384
102
{ACAD_REACTORS
330
377
102
}
330
377
100
AcDbScale
 70
     0
300
1" = 1'-0"
140
1.0
141
12.0
290
     0
  0
SCALE
  5
385
102
{ACAD_REACTORS
330
377
102
}
330
377
100
AcDbScale
 70
     0
300
1-1/2" = 1'-0"
140
1.5
141
12.0
290
     0
  0
SCALE
  5
386
102
{ACAD_REACTORS
330
377
102
}
330
377
100
AcDbScale
 70
     0
300
3" = 1'-0"
140
3.0
141
12.0
290
     0
  0
SCALE
  5
387
102
{ACAD_REACTORS
330
377
102
}
330
377
100
AcDbScale
 70
     0
300
6" = 1'-0"
140
6.0
141
12.0
290
     0
  0
SCALE
  5
388
102
{ACAD_REACTORS
330
377
102
}
330
377
100
AcDbScale
 70
     0
300
1'-0" = 1'-0"
140
12.0
141
12.0
290
     0
  0
ACDBSECTIONVIEWSTYLE
  5
39D
102
{ACAD_XDICTIONARY
360
40E
102
}
102
{ACAD_REACTORS
330
39C
102
}
330
39C
100
AcDbModelDocViewStyle
 70
     0
  3
Imperial24
290
     0
100
AcDbSectionViewStyle
 70
     0
 71
     0
 90
       78
 71
     1
340
38A
 40
0.24
340
0
340
0
 40
0.24
300
I, O, Q, S, X, Z
 40
0.48
 90
        3
 40
0.18
 90
        1
 71
     2
340
391
 90
       25
340
391
 90
       50
 40
0.24
 40
0.0
 40
0.24
 71
     3
340
38A
 40
0.24
 90
        1
 40
0.75
 90
        1
300
%<\AcVar ViewType \f "%tc1">% %<\AcVar ViewSectionStartId>%-%<\AcVar ViewSectionEndId>%\PSCALE %<\AcVar ViewScale \f "%sn">%
 71
     4
300
ANSI31
 40
1.0
 90
        0
290
     0
290
     0
 90
        6
 40
0.0
 40
1.570796326794896
 40
0.2617993877991494
 40
1.308996938995747
 40
-0.2617993877991494
 40
1.832595714594046
  0
TABLESTYLE
  5
399
102
{ACAD_XDICTIONARY
360
3D5
102
}
102
{ACAD_REACTORS
330
398
102
}
330
398
100
AcDbTableStyle
  3
Standard
 70
     0
 71
     0
 40
0.06
 41
0.06
280
     0
281
     0
  7
STANDARD
140
0.18
170
     2
 62
     0
 63
     7
283
     0
274
    -2
284
     1
 64
     0
275
    -2
285
     1
 65
     0
276
    -2
286
     1
 66
     0
277
    -2
287
     1
 67
     0
278
    -2
288
     1
 68
     0
279
    -2
289
     1
 69
     0
  7
STANDARD
140
0.25
170
     5
 62
     0
 63
     7
283
     0
274
    -2
284
     1
 64
     0
275
    -2
285
     1
 65
     0
276
    -2
286
     1
 66
     0
277
    -2
287
     1
 67
     0
278
    -2
288
     1
 68
     0
279
    -2
289
     1
 69
     0
  7
STANDARD
140
0.18
170
     5
 62
     0
 63
     7
283
     0
274
    -2
284
     1
 64
     0
275
    -2
285
     1
 65
     0
276
    -2
286
     1
 66
     0
277
    -2
287
     1
 67
     0
278
    -2
288
     1
 68
     0
279
    -2
289
     1
 69
     0
  0
VISUALSTYLE
  5
364
102
{ACAD_XDICTIONARY
360
3E6
102
}
102
{ACAD_REACTORS
330
35E
102
}
330
35E
100
AcDbVisualStyle
  2
2dWireframe
 70
     4
 71
     0
 72
     2
 73
     0
 90
        0
 40
-0.6
 41
-30.0
 62
     5
 63
     7
 74
     1
 91
        4
 64
     7
 65
   257
 75
     1
175
     1
 42
1.0
 92
        0
 66
   257
 43
1.0
 76
     1
 77
     6
 78
     2
 67
     7
 79
     5
170
     0
171
     0
290
     0
174
     0
 93
        1
 44
0.0
173
     0
291
     0
 45
0.0
1001
ACAD
1000
AcDbSavedByObjectVersion
1070
     0
  0
VISUALSTYLE
  5
363
102
{ACAD_XDICTIONARY
360
3E4
102
}
102
{ACAD_REACTORS
330
35E
102
}
330
35E
100
AcDbVisualStyle
  2
Basic
 70
     7
 71
     1
 72
     0
 73
     1
 90
        0
 40
-0.6
 41
-30.0
 62
     5
 63
     7
 74
     0
 91
        4
 64
     7
 65
   257
 75
     1
175
     1
 42
1.0
 92
        8
 66
     7
 43
1.0
 76
     1
 77
     6
 78
     2
 67
     7
 79
     5
170
     0
171
     0
290
     0
174
     0
 93
        1
 44
0.0
173
     0
291
     1
 45
0.0
1001
ACAD
1000
AcDbSavedByObjectVersion
1070
     0
  0
VISUALSTYLE
  5
36A
102
{ACAD_XDICTIONARY
360
3F2
102
}
102
{ACAD_REACTORS
330
35E
102
}
330
35E
100
AcDbVisualStyle
  2
Brighten
 70
    12
 71
     2
 72
     2
 73
     0
 90
        0
 40
-0.6
 41
-30.0
 62
     5
 63
     7
 74
     1
 91
        4
 64
     7
 65
   257
 75
     1
175
     1
 42
1.0
 92
        8
 66
     7
 43
1.0
 76
     1
 77
     6
 78
     2
 67
     7
 79
     5
170
     0
171
     0
290
     0
174
     0
 93
        1
 44
50.0
173
     0
291
     1
 45
0.0
1001
ACAD
1000
AcDbSavedByObjectVersion
1070
     0
  0
VISUALSTYLE
  5
36E
102
{ACAD_XDICTIONARY
360
3FA
102
}
102
{ACAD_REACTORS
330
35E
102
}
330
35E
100
AcDbVisualStyle
  2
ColorChange
 70
    16
 71
     2
 72
     2
 73
     3
 90
        0
 40
-0.6
 41
-30.0
 62
     5
 63
     8
 74
     1
 91
        4
 64
     7
 65
   257
 75
     1
175
     1
 42
1.0
 92
        8
 66
     8
 43
1.0
 76
     1
 77
     6
 78
     2
 67
     7
 79
     5
170
     0
171
     0
290
     0
174
     0
 93
        1
 44
0.0
173
     0
291
     1
 45
0.0
1001
ACAD
1000
AcDbSavedByObjectVersion
1070
     0
  0
VISUALSTYLE
  5
367
102
{ACAD_XDICTIONARY
360
3EC
102
}
102
{ACAD_REACTORS
330
35E
102
}
330
35E
100
AcDbVisualStyle
  2
Conceptual
 70
     9
 71
     3
 72
     2
 73
     0
 90
        0
 40
-0.6
 41
-30.0
 62
     5
 63
     7
 74
     2
 91
        2
 64
     7
 65
   257
 75
     1
175
     1
 42
179.0
 92
        8
 66
     7
 43
1.0
 76
     1
 77
     6
 78
     2
 67
     7
 79
     3
170
     0
171
     0
290
     0
174
     0
 93
        1
 44
0.0
173
     0
291
     0
 45
0.0
1001
ACAD
1000
AcDbSavedByObjectVersion
1070
     0
  0
VISUALSTYLE
  5
369
102
{ACAD_XDICTIONARY
360
3F0
102
}
102
{ACAD_REACTORS
330
35E
102
}
330
35E
100
AcDbVisualStyle
  2
Dim
 70
    11
 71
     2
 72
     2
 73
     0
 90
        0
 40
-0.6
 41
-30.0
 62
     5
 63
     7
 74
     1
 91
        4
 64
     7
 65
   257
 75
     1
175
     1
 42
1.0
 92
        8
 66
     7
 43
1.0
 76
     1
 77
     6
 78
     2
 67
     7
 79
     5
170
     0
171
     0
290
     0
174
     0
 93
        1
 44
-50.0
173
     0
291
     1
 45
0.0
1001
ACAD
1000
AcDbSavedByObjectVersion
1070
     0
  0
VISUALSTYLE
  5
376
102
{ACAD_XDICTIONARY
360
40A
102
}
102
{ACAD_REACTORS
330
35E
102
}
330
35E
100
AcDbVisualStyle
  2
EdgeColorOff
 70
    22
 71
     2
 72
     2
 73
     0
 90
        0
 40
-0.6
 41
-30.0
 62
     5
 63
     7
 74
     1
 91
        4
 64
     7
 65
   257
 75
     1
175
     1
 42
1.0
 92
        8
 66
     7
 43
1.0
 76
     1
 77
     6
 78
     2
 67
     7
 79
     5
170
     0
171
     0
290
     0
174
     0
 93
        1
 44
0.0
173
     0
291
     1
 45
0.0
1001
ACAD
1000
AcDbSavedByObjectVersion
1070
     0
  0
VISUALSTYLE
  5
36D
102
{ACAD_XDICTIONARY
360
3F8
102
}
102
{ACAD_REACTORS
330
35E
102
}
330
35E
100
AcDbVisualStyle
  2
Facepattern
 70
    15
 71
     2
 72
     2
 73
     0
 90
        0
 40
-0.6
 41
-30.0
 62
     5
 63
     7
 74
     1
 91
        4
 64
     7
 65
   257
 75
     1
175
     1
 42
1.0
 92
        8
 66
     7
 43
1.0
 76
     1
 77
     6
 78
     2
 67
     7
 79
     5
170
     0
171
     0
290
     0
174
     0
 93
        1
 44
0.0
173
     0
291
     1
 45
0.0
1001
ACAD
1000
AcDbSavedByObjectVersion
1070
     0
  0
VISUALSTYLE
  5
35F
102
{ACAD_XDICTIONARY
360
3DC
102
}
102
{ACAD_REACTORS
330
35E
102
}
330
35E
100
AcDbVisualStyle
  2
Flat
 70
     0
 71
     2
 72
     1
 73
     1
 90
        2
 40
-0.6
 41
30.0
 62
     5
 63
     7
 74
     0
 91
        0
 64
     7
 65
   257
 75
     1
175
     1
 42
1.0
 92
        8
 66
     7
 43
1.0
 76
     1
 77
     6
 78
     2
 67
     7
 79
     5
170
     0
171
     0
290
     0
174
     0
 93
       13
 44
0.0
173
     0
291
     1
 45
0.0
1001
ACAD
1000
AcDbSavedByObjectVersion
1070
     0
  0
VISUALSTYLE
  5
360
102
{ACAD_XDICTIONARY
360
3DE
102
}
102
{ACAD_REACTORS
330
35E
102
}
330
35E
100
AcDbVisualStyle
  2
FlatWithEdges
 70
     1
 71
     2
 72
     1
 73
     1
 90
        2
 40
-0.6
 41
30.0
 62
     5
 63
     7
 74
     1
 91
        0
 64
     7
 65
   257
 75
     1
175
     1
 42
1.0
 92
        0
 66
   257
 43
1.0
 76
     1
 77
     6
 78
     2
 67
     7
 79
     5
170
     0
171
     0
290
     0
174
     0
 93
       13
 44
0.0
173
     0
291
     1
 45
0.0
1001
ACAD
1000
AcDbSavedByObjectVersion
1070
     0
  0
VISUALSTYLE
  5
361
102
{ACAD_XDICTIONARY
360
3E0
102
}
102
{ACAD_REACTORS
330
35E
102
}
330
35E
100
AcDbVisualStyle
  2
Gouraud
 70
     2
 71
     2
 72
     2
 73
     1
 90
        2
 40
-0.6
 41
30.0
 62
     5
 63
     7
 74
     0
 91
        0
 64
     7
 65
   257
 75
     1
175
     1
 42
1.0
 92
        0
 66
     7
 43
1.0
 76
     1
 77
     6
 78
     2
 67
     7
 79
     5
170
     0
171
     0
290
     0
174
     0
 93
       13
 44
0.0
173
     0
291
     1
 45
0.0
1001
ACAD
1000
AcDbSavedByObjectVersion
1070
     0
  0
VISUALSTYLE
  5
362
102
{ACAD_XDICTIONARY
360
3E2
102
}
102
{ACAD_REACTORS
330
35E
102
}
330
35E
100
AcDbVisualStyle
  2
GouraudWithEdges
 70
     3
 71
     2
 72
     2
 73
     1
 90
        2
 40
-0.6
 41
30.0
 62
     5
 63
     7
 74
     1
 91
        0
 64
     7
 65
   257
 75
     1
175
     1
 42
1.0
 92
        0
 66
   257
 43
1.0
 76
     1
 77
     6
 78
     2
 67
     7
 79
     5
170
     0
171
     0
290
     0
174
     0
 93
       13
 44
0.0
173
     0
291
     1
 45
0.0
1001
ACAD
1000
AcDbSavedByObjectVersion
1070
     0
  0
VISUALSTYLE
  5
366
102
{ACAD_XDICTIONARY
360
3EA
102
}
102
{ACAD_REACTORS
330
35E
102
}
330
35E
100
AcDbVisualStyle
  2
Hidden
 70
     6
 71
     1
 72
     2
 73
     2
 90
        0
 40
-0.6
 41
-30.0
 62
     5
 63
     7
 74
     2
 91
        2
 64
     7
 65
   257
 75
     2
175
     1
 42
40.0
 92
        0
 66
   257
 43
1.0
 76
     1
 77
     6
 78
     2
 67
     7
 79
     3
170
     0
171
     0
290
     0
174
     0
 93
        1
 44
0.0
173
     0
291
     0
 45
0.0
1001
ACAD
1000
AcDbSavedByObjectVersion
1070
     0
  0
VISUALSTYLE
  5
374
102
{ACAD_XDICTIONARY
360
406
102
}
102
{ACAD_REACTORS
330
35E
102
}
330
35E
100
AcDbVisualStyle
  2
JitterOff
 70
    20
 71
     2
 72
     2
 73
     0
 90
        0
 40
-0.6
 41
-30.0
 62
     5
 63
     7
 74
     1
 91
        4
 64
     7
 65
   257
 75
     1
175
     1
 42
1.0
 92
       10
 66
     7
 43
1.0
 76
     1
 77
     6
 78
     2
 67
     7
 79
     5
170
     0
171
     0
290
     0
174
     0
 93
        1
 44
0.0
173
     0
291
     1
 45
0.0
1001
ACAD
1000
AcDbSavedByObjectVersion
1070
     0
  0
VISUALSTYLE
  5
36C
102
{ACAD_XDICTIONARY
360
3F6
102
}
102
{ACAD_REACTORS
330
35E
102
}
330
35E
100
AcDbVisualStyle
  2
Linepattern
 70
    14
 71
     2
 72
     2
 73
     0
 90
        0
 40
-0.6
 41
-30.0
 62
     5
 63
     7
 74
     1
 91
        4
 64
     7
 65
   257
 75
     7
175
     7
 42
1.0
 92
        8
 66
     7
 43
1.0
 76
     1
 77
     6
 78
     2
 67
     7
 79
     5
170
     0
171
     0
290
     0
174
     0
 93
        1
 44
0.0
173
     0
291
     1
 45
0.0
1001
ACAD
1000
AcDbSavedByObjectVersion
1070
     0
  0
VISUALSTYLE
  5
375
102
{ACAD_XDICTIONARY
360
408
102
}
102
{ACAD_REACTORS
330
35E
102
}
330
35E
100
AcDbVisualStyle
  2
OverhangOff
 70
    21
 71
     2
 72
     2
 73
     0
 90
        0
 40
-0.6
 41
-30.0
 62
     5
 63
     7
 74
     1
 91
        4
 64
     7
 65
   257
 75
     1
175
     1
 42
1.0
 92
        9
 66
     7
 43
1.0
 76
     1
 77
     6
 78
     2
 67
     7
 79
     5
170
     0
171
     0
290
     0
174
     0
 93
        1
 44
0.0
173
     0
291
     1
 45
0.0
1001
ACAD
1000
AcDbSavedByObjectVersion
1070
     0
  0
VISUALSTYLE
  5
368
102
{ACAD_XDICTIONARY
360
3EE
102
}
102
{ACAD_REACTORS
330
35E
102
}
330
35E
100
AcDbVisualStyle
  2
Realistic
 70
     8
 71
     2
 72
     3
 73
     0
 90
        2
 40
-0.6
 41
30.0
 62
     5
 63
     7
 74
     0
 91
        0
 64
     7
 65
   257
 75
     1
175
     1
 42
1.0
 92
        8
 66
   257
 43
1.0
 76
     1
 77
     6
 78
     2
 67
     7
 79
     3
170
     0
171
     0
290
     0
174
     0
 93
       13
 44
0.0
173
     0
291
     0
 45
0.0
1001
ACAD
1000
AcDbSavedByObjectVersion
1070
     0
  0
VISUALSTYLE
  5
373
102
{ACAD_XDICTIONARY
360
404
102
}
102
{ACAD_REACTORS
330
35E
102
}
330
35E
100
AcDbVisualStyle
  2
Shaded
 70
    27
 71
     2
 72
     2
 73
     1
 90
        2
 40
-0.6
 41
30.0
 62
     5
 63
     7
 74
     0
 91
        4
 64
     7
 65
   257
 75
     1
175
     1
 42
1.0
 92
        8
 66
   257
 43
1.0
 76
     1
 77
     6
 78
     2
 67
     8
 79
     3
170
     0
171
     0
290
     0
174
     0
 93
        5
 44
0.0
173
     0
291
     0
 45
0.0
1001
ACAD
1000
AcDbSavedByObjectVersion
1070
     0
  0
VISUALSTYLE
  5
372
102
{ACAD_XDICTIONARY
360
402
102
}
102
{ACAD_REACTORS
330
35E
102
}
330
35E
100
AcDbVisualStyle
  2
Shaded with edges
 70
    26
 71
     2
 72
     2
 73
     1
 90
        2
 40
-0.6
 41
30.0
 62
     5
 63
     7
 74
     1
 91
        2
 64
     7
 65
   257
 75
     2
175
     1
 42
1.0
 92
        8
 66
   257
 43
1.0
 76
     1
 77
     6
 78
     2
 67
     7
 79
     3
170
     0
171
     0
290
     0
174
     0
 93
        5
 44
0.0
173
     0
291
     0
 45
0.0
1001
ACAD
1000
AcDbSavedByObjectVersion
1070
     0
  0
VISUALSTYLE
  5
36F
102
{ACAD_XDICTIONARY
360
3FC
102
}
102
{ACAD_REACTORS
330
35E
102
}
330
35E
100
AcDbVisualStyle
  2
Shades of Gray
 70
    23
 71
     2
 72
     2
 73
     3
 90
        0
 40
-0.6
 41
-30.0
 62
     5
 63
     7
 74
     2
 91
        2
 64
     7
 65
     7
 75
     1
175
     1
 42
40.0
 92
        8
 66
     7
 43
1.0
 76
     1
 77
     6
 78
     2
 67
     7
 79
     3
170
     0
171
     0
290
     0
174
     0
 93
        1
 44
0.0
173
     0
291
     0
 45
0.0
1001
ACAD
1000
AcDbSavedByObjectVersion
1070
     0
  0
VISUALSTYLE
  5
370
102
{ACAD_XDICTIONARY
360
3FE
102
}
102
{ACAD_REACTORS
330
35E
102
}
330
35E
100
AcDbVisualStyle
  2
Sketchy
 70
    24
 71
     1
 72
     2
 73
     2
 90
        0
 40
-0.6
 41
-30.0
 62
     5
 63
     7
 74
     2
 91
        2
 64
     7
 65
     7
 75
     1
175
     1
 42
40.0
 92
       11
 66
     7
 43
1.0
 76
     1
 77
     6
 78
     2
 67
     7
 79
     6
170
     0
171
     0
290
     0
174
     0
 93
        1
 44
0.0
173
     0
291
     0
 45
0.0
1001
ACAD
1000
AcDbSavedByObjectVersion
1070
     0
  0
VISUALSTYLE
  5
36B
102
{ACAD_XDICTIONARY
360
3F4
102
}
102
{ACAD_REACTORS
330
35E
102
}
330
35E
100
AcDbVisualStyle
  2
Thicken
 70
    13
 71
     2
 72
     2
 73
     0
 90
        0
 40
-0.6
 41
-30.0
 62
     5
 63
     7
 74
     1
 91
        4
 64
     7
 65
   257
 75
     1
175
     1
 42
1.0
 92
       12
 66
     7
 43
1.0
 76
     1
 77
     6
 78
     2
 67
     7
 79
     5
170
     0
171
     0
290
     0
174
     0
 93
        1
 44
0.0
173
     0
291
     1
 45
0.0
1001
ACAD
1000
AcDbSavedByObjectVersion
1070
     0
  0
VISUALSTYLE
  5
365
102
{ACAD_XDICTIONARY
360
3E8
102
}
102
{ACAD_REACTORS
330
35E
102
}
330
35E
100
AcDbVisualStyle
  2
Wireframe
 70
     5
 71
     0
 72
     2
 73
     0
 90
        0
 40
-0.6
 41
-30.0
 62
     5
 63
     7
 74
     1
 91
        4
 64
     7
 65
   257
 75
     1
175
     1
 42
1.0
 92
        0
 66
   257
 43
1.0
 76
     1
 77
     6
 78
     2
 67
     7
 79
     3
170
     0
171
     0
290
     0
174
     0
 93
        1
 44
0.0
173
     0
291
     0
 45
0.0
1001
ACAD
1000
AcDbSavedByObjectVersion
1070
     0
  0
VISUALSTYLE
  5
371
102
{ACAD_XDICTIONARY
360
400
102
}
102
{ACAD_REACTORS
330
35E
102
}
330
35E
100
AcDbVisualStyle
  2
X-Ray
 70
    25
 71
     2
 72
     2
 73
     1
 90
        1
 40
0.5
 41
-30.0
 62
     5
 63
     7
 74
     1
 91
        0
 64
     7
 65
   257
 75
     1
175
     1
 42
1.0
 92
        8
 66
     7
 43
1.0
 76
     1
 77
     6
 78
     2
 67
     7
 79
     3
170
     0
171
     0
290
     0
174
     0
 93
       13
 44
0.0
173
     0
291
     0
 45
0.0
1001
ACAD
1000
AcDbSavedByObjectVersion
1070
     0
  0
DICTIONARYVAR
  5
3CF
102
{ACAD_REACTORS
330
3CA
102
}
330
3CA
100
DictionaryVariables
280
     0
  1
1:1
  0
DICTIONARYVAR
  5
3CC
102
{ACAD_REACTORS
330
3CA
102
}
330
3CA
100
DictionaryVariables
280
     0
  1
STANDARD
  0
DICTIONARYVAR
  5
3CB
102
{ACAD_REACTORS
330
3CA
102
}
330
3CA
100
DictionaryVariables
280
     0
  1
STANDARD
  0
DICTIONARYVAR
  5
3CD
102
{ACAD_REACTORS
330
3CA
102
}
330
3CA
100
DictionaryVariables
280
     0
  1
Imperial24
  0
DICTIONARYVAR
  5
3CE
102
{ACAD_REACTORS
330
3CA
102
}
330
3CA
100
DictionaryVariables
280
     0
  1
Imperial24
  0
DICTIONARYVAR
  5
3D2
102
{ACAD_REACTORS
330
3CA
102
}
330
3CA
100
DictionaryVariables
280
     0
  1
1
  0
DICTIONARYVAR
  5
3D1
102
{ACAD_REACTORS
330
3CA
102
}
330
3CA
100
DictionaryVariables
280
     0
  1
0
  0
DICTIONARYVAR
  5
3D0
102
{ACAD_REACTORS
330
3CA
102
}
330
3CA
100
DictionaryVariables
280
     0
  1
127
  0
DICTIONARYVAR
  5
3D3
102
{ACAD_REACTORS
330
3CA
102
}
330
3CA
100
DictionaryVariables
280
     0
  1
2
  0
DICTIONARY
  5
410
330
39F
100
AcDbDictionary
280
     1
281
     1
  3
ACAD_XREC_ROUNDTRIP
360
411
  0
DICTIONARY
  5
414
330
3A7
100
AcDbDictionary
280
     1
281
     1
  3
ACAD_XREC_ROUNDTRIP
360
415
  0
DICTIONARY
  5
412
330
3A3
100
AcDbDictionary
280
     1
281
     1
  3
ACAD_XREC_ROUNDTRIP
360
413
  0
DICTIONARY
  5
34F
330
34E
100
AcDbDictionary
280
     1
281
     1
  3
ACAD_XREC_ROUNDTRIP
360
3DA
  3
BUMPTILE
360
351
  3
DIFFUSETILE
360
350
  3
OPACITYTILE
360
354
  3
REFLECTIONTILE
360
353
  3
REFRACTIONTILE
360
355
  3
SPECULARTILE
360
352
  0
DICTIONARY
  5
347
330
346
100
AcDbDictionary
280
     1
281
     1
  3
ACAD_XREC_ROUNDTRIP
360
3D9
  3
BUMPTILE
360
349
  3
DIFFUSETILE
360
348
  3
OPACITYTILE
360
34C
  3
REFLECTIONTILE
360
34B
  3
REFRACTIONTILE
360
34D
  3
SPECULARTILE
360
34A
  0
DICTIONARY
  5
357
330
356
100
AcDbDictionary
280
     1
281
     1
  3
ACAD_XREC_ROUNDTRIP
360
3DB
  3
BUMPTILE
360
359
  3
DIFFUSETILE
360
358
  3
OPACITYTILE
360
35C
  3
REFLECTIONTILE
360
35B
  3
REFRACTIONTILE
360
35D
  3
SPECULARTILE
360
35A
  0
DICTIONARY
  5
40E
330
39D
100
AcDbDictionary
280
     1
281
     1
  3
ACAD_XREC_ROUNDTRIP
360
40F
  0
DICTIONARY
  5
3D5
330
399
100
AcDbDictionary
280
     1
281
     1
  3
ACAD_ROUNDTRIP_2008_TABLESTYLE_CELLSTYLEMAP
360
3D6
  3
ACAD_XREC_ROUNDTRIP
360
40C
  0
DICTIONARY
  5
3E6
330
364
100
AcDbDictionary
280
     1
281
     1
  3
ACAD_XREC_ROUNDTRIP
360
3E7
  0
DICTIONARY
  5
3E4
330
363
100
AcDbDictionary
280
     1
281
     1
  3
ACAD_XREC_ROUNDTRIP
360
3E5
  0
DICTIONARY
  5
3F2
330
36A
100
AcDbDictionary
280
     1
281
     1
  3
ACAD_XREC_ROUNDTRIP
360
3F3
  0
DICTIONARY
  5
3FA
330
36E
100
AcDbDictionary
280
     1
281
     1
  3
ACAD_XREC_ROUNDTRIP
360
3FB
  0
DICTIONARY
  5
3EC
330
367
100
AcDbDictionary
280
     1
281
     1
  3
ACAD_XREC_ROUNDTRIP
360
3ED
  0
DICTIONARY
  5
3F0
330
369
100
AcDbDictionary
280
     1
281
     1
  3
ACAD_XREC_ROUNDTRIP
360
3F1
  0
DICTIONARY
  5
40A
330
376
100
AcDbDictionary
280
     1
281
     1
  3
ACAD_XREC_ROUNDTRIP
360
40B
  0
DICTIONARY
  5
3F8
330
36D
100
AcDbDictionary
280
     1
281
     1
  3
ACAD_XREC_ROUNDTRIP
360
3F9
  0
DICTIONARY
  5
3DC
330
35F
100
AcDbDictionary
280
     1
281
     1
  3
ACAD_XREC_ROUNDTRIP
360
3DD
  0
DICTIONARY
  5
3DE
330
360
100
AcDbDictionary
280
     1
281
     1
  3
ACAD_XREC_ROUNDTRIP
360
3DF
  0
DICTIONARY
  5
3E0
330
361
100
AcDbDictionary
280
     1
281
     1
  3
ACAD_XREC_ROUNDTRIP
360
3E1
  0
DICTIONARY
  5
3E2
330
362
100
AcDbDictionary
280
     1
281
     1
  3
ACAD_XREC_ROUNDTRIP
360
3E3
  0
DICTIONARY
  5
3EA
330
366
100
AcDbDictionary
280
     1
281
     1
  3
ACAD_XREC_ROUNDTRIP
360
3EB
  0
DICTIONARY
  5
406
330
374
100
AcDbDictionary
280
     1
281
     1
  3
ACAD_XREC_ROUNDTRIP
360
407
  0
DICTIONARY
  5
3F6
330
36C
100
AcDbDictionary
280
     1
281
     1
  3
ACAD_XREC_ROUNDTRIP
360
3F7
  0
DICTIONARY
  5
408
330
375
100
AcDbDictionary
280
     1
281
     1
  3
ACAD_XREC_ROUNDTRIP
360
409
  0
DICTIONARY
  5
3EE
330
368
100
AcDbDictionary
280
     1
281
     1
  3
ACAD_XREC_ROUNDTRIP
360
3EF
  0
DICTIONARY
  5
404
330
373
100
AcDbDictionary
280
     1
281
     1
  3
ACAD_XREC_ROUNDTRIP
360
405
  0
DICTIONARY
  5
402
330
372
100
AcDbDictionary
280
     1
281
     1
  3
ACAD_XREC_ROUNDTRIP
360
403
  0
DICTIONARY
  5
3FC
330
36F
100
AcDbDictionary
280
     1
281
     1
  3
ACAD_XREC_ROUNDTRIP
360
3FD
  0
DICTIONARY
  5
3FE
330
370
100
AcDbDictionary
280
     1
281
     1
  3
ACAD_XREC_ROUNDTRIP
360
3FF
  0
DICTIONARY
  5
3F4
330
36B
100
AcDbDictionary
280
     1
281
     1
  3
ACAD_XREC_ROUNDTRIP
360
3F5
  0
DICTIONARY
  5
3E8
330
365
100
AcDbDictionary
280
     1
281
     1
  3
ACAD_XREC_ROUNDTRIP
360
3E9
  0
DICTIONARY
  5
400
330
371
100
AcDbDictionary
280
     1
281
     1
  3
ACAD_XREC_ROUNDTRIP
360
401
  0
XRECORD
  5
411
102
{ACAD_REACTORS
330
410
102
}
330
410
100
AcDbXrecord
280
     1
102
DISPLAYNAME
  1
Imperial24
102
FLAGS
 90
        0
  0
XRECORD
  5
415
102
{ACAD_REACTORS
330
414
102
}
330
414
100
AcDbXrecord
280
     1
102
SHADEPLOT
 70
     0
102
SHADEPLOTRESLEVEL
 70
     2
102
SHADEPLOTCUSTOMDPI
 70
   300
  0
XRECORD
  5
413
102
{ACAD_REACTORS
330
412
102
}
330
412
100
AcDbXrecord
280
     1
102
SHADEPLOT
 70
     0
102
SHADEPLOTRESLEVEL
 70
     2
102
SHADEPLOTCUSTOMDPI
 70
   300
  0
XRECORD
  5
3DA
102
{ACAD_REACTORS
330
34F
102
}
330
34F
100
AcDbXrecord
280
     1
102
MATERIAL
148
0.0
149
0.0
149
0.0
 93
        0
 94
      127
282
     0
 72
     0
 77
     0
171
     0
175
     0
179
     0
273
     0
  0
XRECORD
  5
351
102
{ACAD_REACTORS
330
34F
102
}
330
34F
100
AcDbXrecord
280
     1
270
     1
271
     1
  0
XRECORD
  5
350
102
{ACAD_REACTORS
330
34F
102
}
330
34F
100
AcDbXrecord
280
     1
270
     1
271
     1
  0
XRECORD
  5
354
102
{ACAD_REACTORS
330
34F
102
}
330
34F
100
AcDbXrecord
280
     1
270
     1
271
     1
  0
XRECORD
  5
353
102
{ACAD_REACTORS
330
34F
102
}
330
34F
100
AcDbXrecord
280
     1
270
     1
271
     1
  0
XRECORD
  5
355
102
{ACAD_REACTORS
330
34F
102
}
330
34F
100
AcDbXrecord
280
     1
270
     1
271
     1
  0
XRECORD
  5
352
102
{ACAD_REACTORS
330
34F
102
}
330
34F
100
AcDbXrecord
280
     1
270
     1
271
     1
  0
XRECORD
  5
3D9
102
{ACAD_REACTORS
330
347
102
}
330
347
100
AcDbXrecord
280
     1
102
MATERIAL
148
0.0
149
0.0
149
0.0
 93
        0
 94
      127
282
     0
 72
     0
 77
     0
171
     0
175
     0
179
     0
273
     0
  0
XRECORD
  5
349
102
{ACAD_REACTORS
330
347
102
}
330
347
100
AcDbXrecord
280
     1
270
     1
271
     1
  0
XRECORD
  5
348
102
{ACAD_REACTORS
330
347
102
}
330
347
100
AcDbXrecord
280
     1
270
     1
271
     1
  0
XRECORD
  5
34C
102
{ACAD_REACTORS
330
347
102
}
330
347
100
AcDbXrecord
280
     1
270
     1
271
     1
  0
XRECORD
  5
34B
102
{ACAD_REACTORS
330
347
102
}
330
347
100
AcDbXrecord
280
     1
270
     1
271
     1
  0
XRECORD
  5
34D
102
{ACAD_REACTORS
330
347
102
}
330
347
100
AcDbXrecord
280
     1
270
     1
271
     1
  0
XRECORD
  5
34A
102
{ACAD_REACTORS
330
347
102
}
330
347
100
AcDbXrecord
280
     1
270
     1
271
     1
  0
XRECORD
  5
3DB
102
{ACAD_REACTORS
330
357
102
}
330
357
100
AcDbXrecord
280
     1
102
MATERIAL
148
0.0
149
0.0
149
0.0
 93
        0
 94
      127
282
     0
 72
     0
 77
     0
171
     0
175
     0
179
     0
273
     0
  0
XRECORD
  5
359
102
{ACAD_REACTORS
330
357
102
}
330
357
100
AcDbXrecord
280
     1
270
     1
271
     1
  0
XRECORD
  5
358
102
{ACAD_REACTORS
330
357
102
}
330
357
100
AcDbXrecord
280
     1
270
     1
271
     1
  0
XRECORD
  5
35C
102
{ACAD_REACTORS
330
357
102
}
330
357
100
AcDbXrecord
280
     1
270
     1
271
     1
  0
XRECORD
  5
35B
102
{ACAD_REACTORS
330
357
102
}
330
357
100
AcDbXrecord
280
     1
270
     1
271
     1
  0
XRECORD
  5
35D
102
{ACAD_REACTORS
330
357
102
}
330
357
100
AcDbXrecord
280
     1
270
     1
271
     1
  0
XRECORD
  5
35A
102
{ACAD_REACTORS
330
357
102
}
330
357
100
AcDbXrecord
280
     1
270
     1
271
     1
  0
XRECORD
  5
40F
102
{ACAD_REACTORS
330
40E
102
}
330
40E
100
AcDbXrecord
280
     1
102
DISPLAYNAME
  1
Imperial24
102
FLAGS
 90
        0
  0
CELLSTYLEMAP
  5
3D6
102
{ACAD_REACTORS
330
3D5
102
}
330
3D5
100
AcDbCellStyleMap
 90
        3
300
CELLSTYLE
  1
TABLEFORMAT_BEGIN
 90
        5
170
     1
 91
        0
 92
    32768
 62
   257
 93
        1
300
CONTENTFORMAT
  1
CONTENTFORMAT_BEGIN
 90
        0
 91
        0
 92
      512
 93
        0
300

 40
0.0
140
1.0
 94
        5
 62
     0
340
38A
144
0.25
309
CONTENTFORMAT_END
171
     0
 94
        0
309
TABLEFORMAT_END
  1
CELLSTYLE_BEGIN
 90
        1
 91
        1
300
_TITLE
309
CELLSTYLE_END
300
CELLSTYLE
  1
TABLEFORMAT_BEGIN
 90
        5
170
     1
 91
        0
 92
        0
 62
   257
 93
        1
300
CONTENTFORMAT
  1
CONTENTFORMAT_BEGIN
 90
        0
 91
        0
 92
      512
 93
        0
300

 40
0.0
140
1.0
 94
        5
 62
     0
340
38A
144
0.18
309
CONTENTFORMAT_END
171
     0
 94
        0
309
TABLEFORMAT_END
  1
CELLSTYLE_BEGIN
 90
        2
 91
        1
300
_HEADER
309
CELLSTYLE_END
300
CELLSTYLE
  1
TABLEFORMAT_BEGIN
 90
        5
170
     1
 91
        0
 92
        0
 62
   257
 93
        1
300
CONTENTFORMAT
  1
CONTENTFORMAT_BEGIN
 90
        0
 91
        0
 92
      512
 93
        0
300

 40
0.0
140
1.0
 94
        2
 62
     0
340
38A
144
0.18
309
CONTENTFORMAT_END
171
     0
 94
        0
309
TABLEFORMAT_END
  1
CELLSTYLE_BEGIN
 90
        3
 91
        2
300
_DATA
309
CELLSTYLE_END
  0
XRECORD
  5
40C
102
{ACAD_REACTORS
330
3D5
102
}
330
3D5
100
AcDbXrecord
280
     1
102
ACAD_ROUNDTRIP_PRE2007_TABLESTYLE
 90
      512
 91
        0
  1

 92
      512
 93
        0
  2

 94
      512
 95
        0
  3

  0
XRECORD
  5
3E7
102
{ACAD_REACTORS
330
3E6
102
}
330
3E6
100
AcDbXrecord
280
     1
102
RTVSPost2010Prop28
280
     1
102
RTVSPost2010PropOp28
 70
     1
102
RTVSPost2010Prop29
280
     1
102
RTVSPost2010PropOp29
 70
     1
102
RTVSPost2010Prop30
280
     0
102
RTVSPost2010PropOp30
 70
     1
102
RTVSPost2010Prop31
280
     0
102
RTVSPost2010PropOp31
 70
     1
102
RTVSPost2010Prop32
280
     0
102
RTVSPost2010PropOp32
 70
     1
102
RTVSPost2010Prop33
280
     0
102
RTVSPost2010PropOp33
 70
     1
102
RTVSPost2010Prop34
280
     0
102
RTVSPost2010PropOp34
 70
     1
102
RTVSPost2010Prop35
280
     0
102
RTVSPost2010PropOp35
 70
     1
102
RTVSPost2010Prop36
280
     0
102
RTVSPost2010PropOp36
 70
     1
102
RTVSPost2010Prop37
 90
       50
102
RTVSPost2010PropOp37
 70
     1
102
RTVSPost2010Prop38
140
0.0
102
RTVSPost2010PropOp38
 70
     1
102
RTVSPost2010Prop39
140
1.0
102
RTVSPost2010PropOp39
 70
     1
102
RTVSPost2010Prop40
 90
        0
102
RTVSPost2010PropOp40
 70
     1
102
RTVSPost2010Prop41ColorIndex
 90
       18
102
RTVSPost2010Prop41ColorRGB
 90
        0
102
RTVSPost2010PropOp41
 70
     1
102
RTVSPost2010Prop42
 90
       50
102
RTVSPost2010PropOp42
 70
     1
102
RTVSPost2010Prop43
 90
        3
102
RTVSPost2010PropOp43
 70
     1
102
RTVSPost2010Prop44ColorIndex
 90
        5
102
RTVSPost2010Prop44ColorRGB
 90
      255
102
RTVSPost2010PropOp44
 70
     1
102
RTVSPost2010Prop45
280
     0
102
RTVSPost2010PropOp45
 70
     1
102
RTVSPost2010Prop46
 90
       50
102
RTVSPost2010PropOp46
 70
     1
102
RTVSPost2010Prop47
 90
       50
102
RTVSPost2010PropOp47
 70
     1
102
RTVSPost2010Prop48
 90
       50
102
RTVSPost2010PropOp48
 70
     1
102
RTVSPost2010Prop49
280
     0
102
RTVSPost2010PropOp49
 70
     1
102
RTVSPost2010Prop50
 90
       50
102
RTVSPost2010PropOp50
 70
     1
102
RTVSPost2010Prop51ColorIndex
 90
      256
102
RTVSPost2010Prop51ColorRGB
 90
-16777216
102
RTVSPost2010PropOp51
 70
     0
102
RTVSPost2010Prop52
140
1.0
102
RTVSPost2010PropOp52
 70
     0
102
RTVSPost2010Prop53
 90
        2
102
RTVSPost2010PropOp53
 70
     1
102
RTVSPost2010Prop54
  1
strokes_ogs.tif
102
RTVSPost2010PropOp54
 70
     1
102
RTVSPost2010Prop55
280
     0
102
RTVSPost2010PropOp55
 70
     1
102
RTVSPost2010Prop56
140
1.0
102
RTVSPost2010PropOp56
 70
     1
102
RTVSPost2010Prop57
140
1.0
102
RTVSPost2010PropOp57
 70
     1
102
RTVSPropertyOp0
 70
     1
102
RTVSPropertyOp1
 70
     1
102
RTVSPropertyOp2
 70
     1
102
RTVSPropertyOp3
 70
     1
102
RTVSPropertyOp4
 70
     1
102
RTVSPropertyOp5
 70
     1
102
RTVSPropertyOp6
 70
     1
102
RTVSPropertyOp7
 70
     1
102
RTVSPropertyOp8
 70
     1
102
RTVSPropertyOp9
 70
     1
102
RTVSPropertyOp10
 70
     1
102
RTVSPropertyOp11
 70
     1
102
RTVSPropertyOp12
 70
     1
102
RTVSPropertyOp13
 70
     1
102
RTVSPropertyOp14
 70
     1
102
RTVSPropertyOp15
 70
     1
102
RTVSPropertyOp16
 70
     1
102
RTVSPropertyOp17
 70
     1
102
RTVSPropertyOp18
 70
     1
102
RTVSPropertyOp19
 70
     1
102
RTVSPropertyOp20
 70
     1
102
RTVSPropertyOp21
 70
     1
102
RTVSPropertyOp22
 70
     1
102
RTVSPropertyOp23
 70
     1
102
RTVSPropertyOp24
 70
     1
102
RTVSPropertyOp25
 70
     1
102
RTVSPropertyOp26
 70
     1
102
RTVSPropertyOp27
 70
     1
102
RTVSPropertyOp28
 70
     1
102
RTVSPropertyOp29
 70
     1
102
RTVSPropertyOp30
 70
     1
102
RTVSPropertyOp31
 70
     1
102
RTVSPropertyOp32
 70
     1
102
RTVSPropertyOp33
 70
     1
102
RTVSPropertyOp34
 70
     1
102
RTVSPropertyOp35
 70
     1
102
RTVSPropertyOp36
 70
     1
102
RTVSPropertyOp37
 70
     1
102
RTVSPropertyOp38
 70
     1
102
RTVSPropertyOp39
 70
     1
102
RTVSPropertyOp40
 70
     1
102
RTVSPropertyOp41
 70
     1
102
RTVSPropertyOp42
 70
     1
102
RTVSPropertyOp43
 70
     1
102
RTVSPropertyOp44
 70
     1
102
RTVSPropertyOp45
 70
     1
102
RTVSPropertyOp46
 70
     1
102
RTVSPropertyOp47
 70
     1
102
RTVSPropertyOp48
 70
     1
102
RTVSPropertyOp49
 70
     1
102
RTVSPropertyOp50
 70
     1
102
RTVSPropertyOp51
 70
     0
102
RTVSPropertyOp52
 70
     0
102
RTVSPropertyOp53
 70
     1
102
RTVSPropertyOp54
 70
     1
102
RTVSPropertyOp55
 70
     1
102
RTVSPropertyOp56
 70
     1
102
RTVSPropertyOp57
 70
     1
102
RTVSPropertyOp58
 70
     1
102
RTVSPropertyOp59
 70
     1
102
RTVSPropertyOp60
 70
     1
102
RTVSPropertyOp61
 70
     1
102
RTVSPropertyOp62
 70
     1
  0
XRECORD
  5
3E5
102
{ACAD_REACTORS
330
3E4
102
}
330
3E4
100
AcDbXrecord
280
     1
102
RTVSPost2010Prop28
280
     0
102
RTVSPost2010PropOp28
 70
     1
102
RTVSPost2010Prop29
280
     1
102
RTVSPost2010PropOp29
 70
     1
102
RTVSPost2010Prop30
280
     1
102
RTVSPost2010PropOp30
 70
     1
102
RTVSPost2010Prop31
280
     0
102
RTVSPost2010PropOp31
 70
     1
102
RTVSPost2010Prop32
280
     0
102
RTVSPost2010PropOp32
 70
     1
102
RTVSPost2010Prop33
280
     0
102
RTVSPost2010PropOp33
 70
     1
102
RTVSPost2010Prop34
280
     0
102
RTVSPost2010PropOp34
 70
     1
102
RTVSPost2010Prop35
280
     0
102
RTVSPost2010PropOp35
 70
     1
102
RTVSPost2010Prop36
280
     0
102
RTVSPost2010PropOp36
 70
     1
102
RTVSPost2010Prop37
 90
       50
102
RTVSPost2010PropOp37
 70
     1
102
RTVSPost2010Prop38
140
0.0
102
RTVSPost2010PropOp38
 70
     1
102
RTVSPost2010Prop39
140
1.0
102
RTVSPost2010PropOp39
 70
     1
102
RTVSPost2010Prop40
 90
        0
102
RTVSPost2010PropOp40
 70
     1
102
RTVSPost2010Prop41ColorIndex
 90
       18
102
RTVSPost2010Prop41ColorRGB
 90
        0
102
RTVSPost2010PropOp41
 70
     1
102
RTVSPost2010Prop42
 90
       50
102
RTVSPost2010PropOp42
 70
     1
102
RTVSPost2010Prop43
 90
        3
102
RTVSPost2010PropOp43
 70
     1
102
RTVSPost2010Prop44ColorIndex
 90
        5
102
RTVSPost2010Prop44ColorRGB
 90
      255
102
RTVSPost2010PropOp44
 70
     1
102
RTVSPost2010Prop45
280
     0
102
RTVSPost2010PropOp45
 70
     1
102
RTVSPost2010Prop46
 90
       50
102
RTVSPost2010PropOp46
 70
     1
102
RTVSPost2010Prop47
 90
       50
102
RTVSPost2010PropOp47
 70
     1
102
RTVSPost2010Prop48
 90
       50
102
RTVSPost2010PropOp48
 70
     1
102
RTVSPost2010Prop49
280
     0
102
RTVSPost2010PropOp49
 70
     1
102
RTVSPost2010Prop50
 90
       50
102
RTVSPost2010PropOp50
 70
     1
102
RTVSPost2010Prop51ColorIndex
 90
      256
102
RTVSPost2010Prop51ColorRGB
 90
-16777216
102
RTVSPost2010PropOp51
 70
     0
102
RTVSPost2010Prop52
140
1.0
102
RTVSPost2010PropOp52
 70
     0
102
RTVSPost2010Prop53
 90
        2
102
RTVSPost2010PropOp53
 70
     1
102
RTVSPost2010Prop54
  1
strokes_ogs.tif
102
RTVSPost2010PropOp54
 70
     1
102
RTVSPost2010Prop55
280
     0
102
RTVSPost2010PropOp55
 70
     1
102
RTVSPost2010Prop56
140
1.0
102
RTVSPost2010PropOp56
 70
     1
102
RTVSPost2010Prop57
140
1.0
102
RTVSPost2010PropOp57
 70
     1
102
RTVSPropertyOp0
 70
     1
102
RTVSPropertyOp1
 70
     1
102
RTVSPropertyOp2
 70
     1
102
RTVSPropertyOp3
 70
     1
102
RTVSPropertyOp4
 70
     1
102
RTVSPropertyOp5
 70
     1
102
RTVSPropertyOp6
 70
     1
102
RTVSPropertyOp7
 70
     1
102
RTVSPropertyOp8
 70
     1
102
RTVSPropertyOp9
 70
     1
102
RTVSPropertyOp10
 70
     1
102
RTVSPropertyOp11
 70
     1
102
RTVSPropertyOp12
 70
     1
102
RTVSPropertyOp13
 70
     1
102
RTVSPropertyOp14
 70
     1
102
RTVSPropertyOp15
 70
     1
102
RTVSPropertyOp16
 70
     1
102
RTVSPropertyOp17
 70
     1
102
RTVSPropertyOp18
 70
     1
102
RTVSPropertyOp19
 70
     1
102
RTVSPropertyOp20
 70
     1
102
RTVSPropertyOp21
 70
     1
102
RTVSPropertyOp22
 70
     1
102
RTVSPropertyOp23
 70
     1
102
RTVSPropertyOp24
 70
     1
102
RTVSPropertyOp25
 70
     1
102
RTVSPropertyOp26
 70
     1
102
RTVSPropertyOp27
 70
     1
102
RTVSPropertyOp28
 70
     1
102
RTVSPropertyOp29
 70
     1
102
RTVSPropertyOp30
 70
     1
102
RTVSPropertyOp31
 70
     1
102
RTVSPropertyOp32
 70
     1
102
RTVSPropertyOp33
 70
     1
102
RTVSPropertyOp34
 70
     1
102
RTVSPropertyOp35
 70
     1
102
RTVSPropertyOp36
 70
     1
102
RTVSPropertyOp37
 70
     1
102
RTVSPropertyOp38
 70
     1
102
RTVSPropertyOp39
 70
     1
102
RTVSPropertyOp40
 70
     1
102
RTVSPropertyOp41
 70
     1
102
RTVSPropertyOp42
 70
     1
102
RTVSPropertyOp43
 70
     1
102
RTVSPropertyOp44
 70
     1
102
RTVSPropertyOp45
 70
     1
102
RTVSPropertyOp46
 70
     1
102
RTVSPropertyOp47
 70
     1
102
RTVSPropertyOp48
 70
     1
102
RTVSPropertyOp49
 70
     1
102
RTVSPropertyOp50
 70
     1
102
RTVSPropertyOp51
 70
     0
102
RTVSPropertyOp52
 70
     0
102
RTVSPropertyOp53
 70
     1
102
RTVSPropertyOp54
 70
     1
102
RTVSPropertyOp55
 70
     1
102
RTVSPropertyOp56
 70
     1
102
RTVSPropertyOp57
 70
     1
102
RTVSPropertyOp58
 70
     1
102
RTVSPropertyOp59
 70
     1
102
RTVSPropertyOp60
 70
     1
102
RTVSPropertyOp61
 70
     1
102
RTVSPropertyOp62
 70
     1
  0
XRECORD
  5
3F3
102
{ACAD_REACTORS
330
3F2
102
}
330
3F2
100
AcDbXrecord
280
     1
102
RTVSPost2010Prop28
280
     0
102
RTVSPost2010PropOp28
 70
     1
102
RTVSPost2010Prop29
280
     1
102
RTVSPost2010PropOp29
 70
     1
102
RTVSPost2010Prop30
280
     1
102
RTVSPost2010PropOp30
 70
     1
102
RTVSPost2010Prop31
280
     0
102
RTVSPost2010PropOp31
 70
     1
102
RTVSPost2010Prop32
280
     0
102
RTVSPost2010PropOp32
 70
     1
102
RTVSPost2010Prop33
280
     0
102
RTVSPost2010PropOp33
 70
     1
102
RTVSPost2010Prop34
280
     0
102
RTVSPost2010PropOp34
 70
     1
102
RTVSPost2010Prop35
280
     0
102
RTVSPost2010PropOp35
 70
     1
102
RTVSPost2010Prop36
280
     0
102
RTVSPost2010PropOp36
 70
     1
102
RTVSPost2010Prop37
 90
       50
102
RTVSPost2010PropOp37
 70
     1
102
RTVSPost2010Prop38
140
0.0
102
RTVSPost2010PropOp38
 70
     1
102
RTVSPost2010Prop39
140
1.0
102
RTVSPost2010PropOp39
 70
     1
102
RTVSPost2010Prop40
 90
        0
102
RTVSPost2010PropOp40
 70
     1
102
RTVSPost2010Prop41ColorIndex
 90
       18
102
RTVSPost2010Prop41ColorRGB
 90
        0
102
RTVSPost2010PropOp41
 70
     1
102
RTVSPost2010Prop42
 90
       50
102
RTVSPost2010PropOp42
 70
     1
102
RTVSPost2010Prop43
 90
        3
102
RTVSPost2010PropOp43
 70
     1
102
RTVSPost2010Prop44ColorIndex
 90
        5
102
RTVSPost2010Prop44ColorRGB
 90
      255
102
RTVSPost2010PropOp44
 70
     1
102
RTVSPost2010Prop45
280
     0
102
RTVSPost2010PropOp45
 70
     1
102
RTVSPost2010Prop46
 90
       50
102
RTVSPost2010PropOp46
 70
     1
102
RTVSPost2010Prop47
 90
       50
102
RTVSPost2010PropOp47
 70
     1
102
RTVSPost2010Prop48
 90
       50
102
RTVSPost2010PropOp48
 70
     1
102
RTVSPost2010Prop49
280
     0
102
RTVSPost2010PropOp49
 70
     1
102
RTVSPost2010Prop50
 90
       50
102
RTVSPost2010PropOp50
 70
     1
102
RTVSPost2010Prop51ColorIndex
 90
      256
102
RTVSPost2010Prop51ColorRGB
 90
-16777216
102
RTVSPost2010PropOp51
 70
     0
102
RTVSPost2010Prop52
140
1.0
102
RTVSPost2010PropOp52
 70
     0
102
RTVSPost2010Prop53
 90
        2
102
RTVSPost2010PropOp53
 70
     1
102
RTVSPost2010Prop54
  1
strokes_ogs.tif
102
RTVSPost2010PropOp54
 70
     1
102
RTVSPost2010Prop55
280
     0
102
RTVSPost2010PropOp55
 70
     1
102
RTVSPost2010Prop56
140
1.0
102
RTVSPost2010PropOp56
 70
     1
102
RTVSPost2010Prop57
140
1.0
102
RTVSPost2010PropOp57
 70
     1
102
RTVSPropertyOp0
 70
     1
102
RTVSPropertyOp1
 70
     1
102
RTVSPropertyOp2
 70
     1
102
RTVSPropertyOp3
 70
     1
102
RTVSPropertyOp4
 70
     1
102
RTVSPropertyOp5
 70
     1
102
RTVSPropertyOp6
 70
     1
102
RTVSPropertyOp7
 70
     1
102
RTVSPropertyOp8
 70
     1
102
RTVSPropertyOp9
 70
     1
102
RTVSPropertyOp10
 70
     1
102
RTVSPropertyOp11
 70
     1
102
RTVSPropertyOp12
 70
     1
102
RTVSPropertyOp13
 70
     1
102
RTVSPropertyOp14
 70
     1
102
RTVSPropertyOp15
 70
     1
102
RTVSPropertyOp16
 70
     1
102
RTVSPropertyOp17
 70
     1
102
RTVSPropertyOp18
 70
     1
102
RTVSPropertyOp19
 70
     1
102
RTVSPropertyOp20
 70
     1
102
RTVSPropertyOp21
 70
     1
102
RTVSPropertyOp22
 70
     1
102
RTVSPropertyOp23
 70
     1
102
RTVSPropertyOp24
 70
     1
102
RTVSPropertyOp25
 70
     1
102
RTVSPropertyOp26
 70
     1
102
RTVSPropertyOp27
 70
     1
102
RTVSPropertyOp28
 70
     1
102
RTVSPropertyOp29
 70
     1
102
RTVSPropertyOp30
 70
     1
102
RTVSPropertyOp31
 70
     1
102
RTVSPropertyOp32
 70
     1
102
RTVSPropertyOp33
 70
     1
102
RTVSPropertyOp34
 70
     1
102
RTVSPropertyOp35
 70
     1
102
RTVSPropertyOp36
 70
     1
102
RTVSPropertyOp37
 70
     1
102
RTVSPropertyOp38
 70
     1
102
RTVSPropertyOp39
 70
     1
102
RTVSPropertyOp40
 70
     1
102
RTVSPropertyOp41
 70
     1
102
RTVSPropertyOp42
 70
     1
102
RTVSPropertyOp43
 70
     1
102
RTVSPropertyOp44
 70
     1
102
RTVSPropertyOp45
 70
     1
102
RTVSPropertyOp46
 70
     1
102
RTVSPropertyOp47
 70
     1
102
RTVSPropertyOp48
 70
     1
102
RTVSPropertyOp49
 70
     1
102
RTVSPropertyOp50
 70
     1
102
RTVSPropertyOp51
 70
     0
102
RTVSPropertyOp52
 70
     0
102
RTVSPropertyOp53
 70
     1
102
RTVSPropertyOp54
 70
     1
102
RTVSPropertyOp55
 70
     1
102
RTVSPropertyOp56
 70
     1
102
RTVSPropertyOp57
 70
     1
102
RTVSPropertyOp58
 70
     1
102
RTVSPropertyOp59
 70
     1
102
RTVSPropertyOp60
 70
     1
102
RTVSPropertyOp61
 70
     1
102
RTVSPropertyOp62
 70
     1
  0
XRECORD
  5
3FB
102
{ACAD_REACTORS
330
3FA
102
}
330
3FA
100
AcDbXrecord
280
     1
102
RTVSPost2010Prop28
280
     0
102
RTVSPost2010PropOp28
 70
     1
102
RTVSPost2010Prop29
280
     1
102
RTVSPost2010PropOp29
 70
     1
102
RTVSPost2010Prop30
280
     1
102
RTVSPost2010PropOp30
 70
     1
102
RTVSPost2010Prop31
280
     0
102
RTVSPost2010PropOp31
 70
     1
102
RTVSPost2010Prop32
280
     0
102
RTVSPost2010PropOp32
 70
     1
102
RTVSPost2010Prop33
280
     0
102
RTVSPost2010PropOp33
 70
     1
102
RTVSPost2010Prop34
280
     0
102
RTVSPost2010PropOp34
 70
     1
102
RTVSPost2010Prop35
280
     0
102
RTVSPost2010PropOp35
 70
     1
102
RTVSPost2010Prop36
280
     0
102
RTVSPost2010PropOp36
 70
     1
102
RTVSPost2010Prop37
 90
       50
102
RTVSPost2010PropOp37
 70
     1
102
RTVSPost2010Prop38
140
0.0
102
RTVSPost2010PropOp38
 70
     1
102
RTVSPost2010Prop39
140
1.0
102
RTVSPost2010PropOp39
 70
     1
102
RTVSPost2010Prop40
 90
        0
102
RTVSPost2010PropOp40
 70
     1
102
RTVSPost2010Prop41ColorIndex
 90
       18
102
RTVSPost2010Prop41ColorRGB
 90
        0
102
RTVSPost2010PropOp41
 70
     1
102
RTVSPost2010Prop42
 90
       50
102
RTVSPost2010PropOp42
 70
     1
102
RTVSPost2010Prop43
 90
        3
102
RTVSPost2010PropOp43
 70
     1
102
RTVSPost2010Prop44ColorIndex
 90
        5
102
RTVSPost2010Prop44ColorRGB
 90
      255
102
RTVSPost2010PropOp44
 70
     1
102
RTVSPost2010Prop45
280
     0
102
RTVSPost2010PropOp45
 70
     1
102
RTVSPost2010Prop46
 90
       50
102
RTVSPost2010PropOp46
 70
     1
102
RTVSPost2010Prop47
 90
       50
102
RTVSPost2010PropOp47
 70
     1
102
RTVSPost2010Prop48
 90
       50
102
RTVSPost2010PropOp48
 70
     1
102
RTVSPost2010Prop49
280
     0
102
RTVSPost2010PropOp49
 70
     1
102
RTVSPost2010Prop50
 90
       50
102
RTVSPost2010PropOp50
 70
     1
102
RTVSPost2010Prop51ColorIndex
 90
      256
102
RTVSPost2010Prop51ColorRGB
 90
-16777216
102
RTVSPost2010PropOp51
 70
     0
102
RTVSPost2010Prop52
140
1.0
102
RTVSPost2010PropOp52
 70
     0
102
RTVSPost2010Prop53
 90
        2
102
RTVSPost2010PropOp53
 70
     1
102
RTVSPost2010Prop54
  1
strokes_ogs.tif
102
RTVSPost2010PropOp54
 70
     1
102
RTVSPost2010Prop55
280
     0
102
RTVSPost2010PropOp55
 70
     1
102
RTVSPost2010Prop56
140
1.0
102
RTVSPost2010PropOp56
 70
     1
102
RTVSPost2010Prop57
140
1.0
102
RTVSPost2010PropOp57
 70
     1
102
RTVSPropertyOp0
 70
     1
102
RTVSPropertyOp1
 70
     1
102
RTVSPropertyOp2
 70
     1
102
RTVSPropertyOp3
 70
     1
102
RTVSPropertyOp4
 70
     1
102
RTVSPropertyOp5
 70
     1
102
RTVSPropertyOp6
 70
     1
102
RTVSPropertyOp7
 70
     1
102
RTVSPropertyOp8
 70
     1
102
RTVSPropertyOp9
 70
     1
102
RTVSPropertyOp10
 70
     1
102
RTVSPropertyOp11
 70
     1
102
RTVSPropertyOp12
 70
     1
102
RTVSPropertyOp13
 70
     1
102
RTVSPropertyOp14
 70
     1
102
RTVSPropertyOp15
 70
     1
102
RTVSPropertyOp16
 70
     1
102
RTVSPropertyOp17
 70
     1
102
RTVSPropertyOp18
 70
     1
102
RTVSPropertyOp19
 70
     1
102
RTVSPropertyOp20
 70
     1
102
RTVSPropertyOp21
 70
     1
102
RTVSPropertyOp22
 70
     1
102
RTVSPropertyOp23
 70
     1
102
RTVSPropertyOp24
 70
     1
102
RTVSPropertyOp25
 70
     1
102
RTVSPropertyOp26
 70
     1
102
RTVSPropertyOp27
 70
     1
102
RTVSPropertyOp28
 70
     1
102
RTVSPropertyOp29
 70
     1
102
RTVSPropertyOp30
 70
     1
102
RTVSPropertyOp31
 70
     1
102
RTVSPropertyOp32
 70
     1
102
RTVSPropertyOp33
 70
     1
102
RTVSPropertyOp34
 70
     1
102
RTVSPropertyOp35
 70
     1
102
RTVSPropertyOp36
 70
     1
102
RTVSPropertyOp37
 70
     1
102
RTVSPropertyOp38
 70
     1
102
RTVSPropertyOp39
 70
     1
102
RTVSPropertyOp40
 70
     1
102
RTVSPropertyOp41
 70
     1
102
RTVSPropertyOp42
 70
     1
102
RTVSPropertyOp43
 70
     1
102
RTVSPropertyOp44
 70
     1
102
RTVSPropertyOp45
 70
     1
102
RTVSPropertyOp46
 70
     1
102
RTVSPropertyOp47
 70
     1
102
RTVSPropertyOp48
 70
     1
102
RTVSPropertyOp49
 70
     1
102
RTVSPropertyOp50
 70
     1
102
RTVSPropertyOp51
 70
     0
102
RTVSPropertyOp52
 70
     0
102
RTVSPropertyOp53
 70
     1
102
RTVSPropertyOp54
 70
     1
102
RTVSPropertyOp55
 70
     1
102
RTVSPropertyOp56
 70
     1
102
RTVSPropertyOp57
 70
     1
102
RTVSPropertyOp58
 70
     1
102
RTVSPropertyOp59
 70
     1
102
RTVSPropertyOp60
 70
     1
102
RTVSPropertyOp61
 70
     1
102
RTVSPropertyOp62
 70
     1
  0
XRECORD
  5
3ED
102
{ACAD_REACTORS
330
3EC
102
}
330
3EC
100
AcDbXrecord
280
     1
102
RTVSPost2010Prop28
280
     0
102
RTVSPost2010PropOp28
 70
     1
102
RTVSPost2010Prop29
280
     1
102
RTVSPost2010PropOp29
 70
     1
102
RTVSPost2010Prop30
280
     1
102
RTVSPost2010PropOp30
 70
     1
102
RTVSPost2010Prop31
280
     0
102
RTVSPost2010PropOp31
 70
     1
102
RTVSPost2010Prop32
280
     0
102
RTVSPost2010PropOp32
 70
     1
102
RTVSPost2010Prop33
280
     0
102
RTVSPost2010PropOp33
 70
     1
102
RTVSPost2010Prop34
280
     0
102
RTVSPost2010PropOp34
 70
     1
102
RTVSPost2010Prop35
280
     0
102
RTVSPost2010PropOp35
 70
     1
102
RTVSPost2010Prop36
280
     0
102
RTVSPost2010PropOp36
 70
     1
102
RTVSPost2010Prop37
 90
       50
102
RTVSPost2010PropOp37
 70
     1
102
RTVSPost2010Prop38
140
0.0
102
RTVSPost2010PropOp38
 70
     1
102
RTVSPost2010Prop39
140
1.0
102
RTVSPost2010PropOp39
 70
     1
102
RTVSPost2010Prop40
 90
        0
102
RTVSPost2010PropOp40
 70
     1
102
RTVSPost2010Prop41ColorIndex
 90
       18
102
RTVSPost2010Prop41ColorRGB
 90
        0
102
RTVSPost2010PropOp41
 70
     1
102
RTVSPost2010Prop42
 90
       50
102
RTVSPost2010PropOp42
 70
     1
102
RTVSPost2010Prop43
 90
        3
102
RTVSPost2010PropOp43
 70
     1
102
RTVSPost2010Prop44ColorIndex
 90
        5
102
RTVSPost2010Prop44ColorRGB
 90
      255
102
RTVSPost2010PropOp44
 70
     1
102
RTVSPost2010Prop45
280
     0
102
RTVSPost2010PropOp45
 70
     1
102
RTVSPost2010Prop46
 90
       50
102
RTVSPost2010PropOp46
 70
     1
102
RTVSPost2010Prop47
 90
       50
102
RTVSPost2010PropOp47
 70
     1
102
RTVSPost2010Prop48
 90
       50
102
RTVSPost2010PropOp48
 70
     1
102
RTVSPost2010Prop49
280
     0
102
RTVSPost2010PropOp49
 70
     1
102
RTVSPost2010Prop50
 90
       50
102
RTVSPost2010PropOp50
 70
     1
102
RTVSPost2010Prop51ColorIndex
 90
      256
102
RTVSPost2010Prop51ColorRGB
 90
-16777216
102
RTVSPost2010PropOp51
 70
     0
102
RTVSPost2010Prop52
140
1.0
102
RTVSPost2010PropOp52
 70
     0
102
RTVSPost2010Prop53
 90
        2
102
RTVSPost2010PropOp53
 70
     1
102
RTVSPost2010Prop54
  1
strokes_ogs.tif
102
RTVSPost2010PropOp54
 70
     1
102
RTVSPost2010Prop55
280
     0
102
RTVSPost2010PropOp55
 70
     1
102
RTVSPost2010Prop56
140
1.0
102
RTVSPost2010PropOp56
 70
     1
102
RTVSPost2010Prop57
140
1.0
102
RTVSPost2010PropOp57
 70
     1
102
RTVSPropertyOp0
 70
     1
102
RTVSPropertyOp1
 70
     1
102
RTVSPropertyOp2
 70
     1
102
RTVSPropertyOp3
 70
     1
102
RTVSPropertyOp4
 70
     1
102
RTVSPropertyOp5
 70
     1
102
RTVSPropertyOp6
 70
     1
102
RTVSPropertyOp7
 70
     1
102
RTVSPropertyOp8
 70
     1
102
RTVSPropertyOp9
 70
     1
102
RTVSPropertyOp10
 70
     1
102
RTVSPropertyOp11
 70
     1
102
RTVSPropertyOp12
 70
     1
102
RTVSPropertyOp13
 70
     1
102
RTVSPropertyOp14
 70
     1
102
RTVSPropertyOp15
 70
     1
102
RTVSPropertyOp16
 70
     1
102
RTVSPropertyOp17
 70
     1
102
RTVSPropertyOp18
 70
     1
102
RTVSPropertyOp19
 70
     1
102
RTVSPropertyOp20
 70
     1
102
RTVSPropertyOp21
 70
     1
102
RTVSPropertyOp22
 70
     1
102
RTVSPropertyOp23
 70
     1
102
RTVSPropertyOp24
 70
     1
102
RTVSPropertyOp25
 70
     1
102
RTVSPropertyOp26
 70
     1
102
RTVSPropertyOp27
 70
     1
102
RTVSPropertyOp28
 70
     1
102
RTVSPropertyOp29
 70
     1
102
RTVSPropertyOp30
 70
     1
102
RTVSPropertyOp31
 70
     1
102
RTVSPropertyOp32
 70
     1
102
RTVSPropertyOp33
 70
     1
102
RTVSPropertyOp34
 70
     1
102
RTVSPropertyOp35
 70
     1
102
RTVSPropertyOp36
 70
     1
102
RTVSPropertyOp37
 70
     1
102
RTVSPropertyOp38
 70
     1
102
RTVSPropertyOp39
 70
     1
102
RTVSPropertyOp40
 70
     1
102
RTVSPropertyOp41
 70
     1
102
RTVSPropertyOp42
 70
     1
102
RTVSPropertyOp43
 70
     1
102
RTVSPropertyOp44
 70
     1
102
RTVSPropertyOp45
 70
     1
102
RTVSPropertyOp46
 70
     1
102
RTVSPropertyOp47
 70
     1
102
RTVSPropertyOp48
 70
     1
102
RTVSPropertyOp49
 70
     1
102
RTVSPropertyOp50
 70
     1
102
RTVSPropertyOp51
 70
     0
102
RTVSPropertyOp52
 70
     0
102
RTVSPropertyOp53
 70
     1
102
RTVSPropertyOp54
 70
     1
102
RTVSPropertyOp55
 70
     1
102
RTVSPropertyOp56
 70
     1
102
RTVSPropertyOp57
 70
     1
102
RTVSPropertyOp58
 70
     1
102
RTVSPropertyOp59
 70
     1
102
RTVSPropertyOp60
 70
     1
102
RTVSPropertyOp61
 70
     1
102
RTVSPropertyOp62
 70
     1
  0
XRECORD
  5
3F1
102
{ACAD_REACTORS
330
3F0
102
}
330
3F0
100
AcDbXrecord
280
     1
102
RTVSPost2010Prop28
280
     0
102
RTVSPost2010PropOp28
 70
     1
102
RTVSPost2010Prop29
280
     1
102
RTVSPost2010PropOp29
 70
     1
102
RTVSPost2010Prop30
280
     1
102
RTVSPost2010PropOp30
 70
     1
102
RTVSPost2010Prop31
280
     0
102
RTVSPost2010PropOp31
 70
     1
102
RTVSPost2010Prop32
280
     0
102
RTVSPost2010PropOp32
 70
     1
102
RTVSPost2010Prop33
280
     0
102
RTVSPost2010PropOp33
 70
     1
102
RTVSPost2010Prop34
280
     0
102
RTVSPost2010PropOp34
 70
     1
102
RTVSPost2010Prop35
280
     0
102
RTVSPost2010PropOp35
 70
     1
102
RTVSPost2010Prop36
280
     0
102
RTVSPost2010PropOp36
 70
     1
102
RTVSPost2010Prop37
 90
       50
102
RTVSPost2010PropOp37
 70
     1
102
RTVSPost2010Prop38
140
0.0
102
RTVSPost2010PropOp38
 70
     1
102
RTVSPost2010Prop39
140
1.0
102
RTVSPost2010PropOp39
 70
     1
102
RTVSPost2010Prop40
 90
        0
102
RTVSPost2010PropOp40
 70
     1
102
RTVSPost2010Prop41ColorIndex
 90
       18
102
RTVSPost2010Prop41ColorRGB
 90
        0
102
RTVSPost2010PropOp41
 70
     1
102
RTVSPost2010Prop42
 90
       50
102
RTVSPost2010PropOp42
 70
     1
102
RTVSPost2010Prop43
 90
        3
102
RTVSPost2010PropOp43
 70
     1
102
RTVSPost2010Prop44ColorIndex
 90
        5
102
RTVSPost2010Prop44ColorRGB
 90
      255
102
RTVSPost2010PropOp44
 70
     1
102
RTVSPost2010Prop45
280
     0
102
RTVSPost2010PropOp45
 70
     1
102
RTVSPost2010Prop46
 90
       50
102
RTVSPost2010PropOp46
 70
     1
102
RTVSPost2010Prop47
 90
       50
102
RTVSPost2010PropOp47
 70
     1
102
RTVSPost2010Prop48
 90
       50
102
RTVSPost2010PropOp48
 70
     1
102
RTVSPost2010Prop49
280
     0
102
RTVSPost2010PropOp49
 70
     1
102
RTVSPost2010Prop50
 90
       50
102
RTVSPost2010PropOp50
 70
     1
102
RTVSPost2010Prop51ColorIndex
 90
      256
102
RTVSPost2010Prop51ColorRGB
 90
-16777216
102
RTVSPost2010PropOp51
 70
     0
102
RTVSPost2010Prop52
140
1.0
102
RTVSPost2010PropOp52
 70
     0
102
RTVSPost2010Prop53
 90
        2
102
RTVSPost2010PropOp53
 70
     1
102
RTVSPost2010Prop54
  1
strokes_ogs.tif
102
RTVSPost2010PropOp54
 70
     1
102
RTVSPost2010Prop55
280
     0
102
RTVSPost2010PropOp55
 70
     1
102
RTVSPost2010Prop56
140
1.0
102
RTVSPost2010PropOp56
 70
     1
102
RTVSPost2010Prop57
140
1.0
102
RTVSPost2010PropOp57
 70
     1
102
RTVSPropertyOp0
 70
     1
102
RTVSPropertyOp1
 70
     1
102
RTVSPropertyOp2
 70
     1
102
RTVSPropertyOp3
 70
     1
102
RTVSPropertyOp4
 70
     1
102
RTVSPropertyOp5
 70
     1
102
RTVSPropertyOp6
 70
     1
102
RTVSPropertyOp7
 70
     1
102
RTVSPropertyOp8
 70
     1
102
RTVSPropertyOp9
 70
     1
102
RTVSPropertyOp10
 70
     1
102
RTVSPropertyOp11
 70
     1
102
RTVSPropertyOp12
 70
     1
102
RTVSPropertyOp13
 70
     1
102
RTVSPropertyOp14
 70
     1
102
RTVSPropertyOp15
 70
     1
102
RTVSPropertyOp16
 70
     1
102
RTVSPropertyOp17
 70
     1
102
RTVSPropertyOp18
 70
     1
102
RTVSPropertyOp19
 70
     1
102
RTVSPropertyOp20
 70
     1
102
RTVSPropertyOp21
 70
     1
102
RTVSPropertyOp22
 70
     1
102
RTVSPropertyOp23
 70
     1
102
RTVSPropertyOp24
 70
     1
102
RTVSPropertyOp25
 70
     1
102
RTVSPropertyOp26
 70
     1
102
RTVSPropertyOp27
 70
     1
102
RTVSPropertyOp28
 70
     1
102
RTVSPropertyOp29
 70
     1
102
RTVSPropertyOp30
 70
     1
102
RTVSPropertyOp31
 70
     1
102
RTVSPropertyOp32
 70
     1
102
RTVSPropertyOp33
 70
     1
102
RTVSPropertyOp34
 70
     1
102
RTVSPropertyOp35
 70
     1
102
RTVSPropertyOp36
 70
     1
102
RTVSPropertyOp37
 70
     1
102
RTVSPropertyOp38
 70
     1
102
RTVSPropertyOp39
 70
     1
102
RTVSPropertyOp40
 70
     1
102
RTVSPropertyOp41
 70
     1
102
RTVSPropertyOp42
 70
     1
102
RTVSPropertyOp43
 70
     1
102
RTVSPropertyOp44
 70
     1
102
RTVSPropertyOp45
 70
     1
102
RTVSPropertyOp46
 70
     1
102
RTVSPropertyOp47
 70
     1
102
RTVSPropertyOp48
 70
     1
102
RTVSPropertyOp49
 70
     1
102
RTVSPropertyOp50
 70
     1
102
RTVSPropertyOp51
 70
     0
102
RTVSPropertyOp52
 70
     0
102
RTVSPropertyOp53
 70
     1
102
RTVSPropertyOp54
 70
     1
102
RTVSPropertyOp55
 70
     1
102
RTVSPropertyOp56
 70
     1
102
RTVSPropertyOp57
 70
     1
102
RTVSPropertyOp58
 70
     1
102
RTVSPropertyOp59
 70
     1
102
RTVSPropertyOp60
 70
     1
102
RTVSPropertyOp61
 70
     1
102
RTVSPropertyOp62
 70
     1
  0
XRECORD
  5
40B
102
{ACAD_REACTORS
330
40A
102
}
330
40A
100
AcDbXrecord
280
     1
102
RTVSPost2010Prop28
280
     0
102
RTVSPost2010PropOp28
 70
     1
102
RTVSPost2010Prop29
280
     1
102
RTVSPost2010PropOp29
 70
     1
102
RTVSPost2010Prop30
280
     1
102
RTVSPost2010PropOp30
 70
     1
102
RTVSPost2010Prop31
280
     0
102
RTVSPost2010PropOp31
 70
     1
102
RTVSPost2010Prop32
280
     0
102
RTVSPost2010PropOp32
 70
     1
102
RTVSPost2010Prop33
280
     0
102
RTVSPost2010PropOp33
 70
     1
102
RTVSPost2010Prop34
280
     0
102
RTVSPost2010PropOp34
 70
     1
102
RTVSPost2010Prop35
280
     0
102
RTVSPost2010PropOp35
 70
     1
102
RTVSPost2010Prop36
280
     0
102
RTVSPost2010PropOp36
 70
     1
102
RTVSPost2010Prop37
 90
       50
102
RTVSPost2010PropOp37
 70
     0
102
RTVSPost2010Prop38
140
0.0
102
RTVSPost2010PropOp38
 70
     0
102
RTVSPost2010Prop39
140
1.0
102
RTVSPost2010PropOp39
 70
     0
102
RTVSPost2010Prop40
 90
        0
102
RTVSPost2010PropOp40
 70
     0
102
RTVSPost2010Prop41ColorIndex
 90
       18
102
RTVSPost2010Prop41ColorRGB
 90
        0
102
RTVSPost2010PropOp41
 70
     0
102
RTVSPost2010Prop42
 90
       50
102
RTVSPost2010PropOp42
 70
     0
102
RTVSPost2010Prop43
 90
        3
102
RTVSPost2010PropOp43
 70
     0
102
RTVSPost2010Prop44ColorIndex
 90
        5
102
RTVSPost2010Prop44ColorRGB
 90
      255
102
RTVSPost2010PropOp44
 70
     0
102
RTVSPost2010Prop45
280
     0
102
RTVSPost2010PropOp45
 70
     1
102
RTVSPost2010Prop46
 90
       50
102
RTVSPost2010PropOp46
 70
     0
102
RTVSPost2010Prop47
 90
       50
102
RTVSPost2010PropOp47
 70
     0
102
RTVSPost2010Prop48
 90
       50
102
RTVSPost2010PropOp48
 70
     0
102
RTVSPost2010Prop49
280
     0
102
RTVSPost2010PropOp49
 70
     1
102
RTVSPost2010Prop50
 90
       50
102
RTVSPost2010PropOp50
 70
     0
102
RTVSPost2010Prop51ColorIndex
 90
      256
102
RTVSPost2010Prop51ColorRGB
 90
-16777216
102
RTVSPost2010PropOp51
 70
     0
102
RTVSPost2010Prop52
140
1.0
102
RTVSPost2010PropOp52
 70
     0
102
RTVSPost2010Prop53
 90
        2
102
RTVSPost2010PropOp53
 70
     0
102
RTVSPost2010Prop54
  1
strokes_ogs.tif
102
RTVSPost2010PropOp54
 70
     0
102
RTVSPost2010Prop55
280
     0
102
RTVSPost2010PropOp55
 70
     1
102
RTVSPost2010Prop56
140
1.0
102
RTVSPost2010PropOp56
 70
     0
102
RTVSPost2010Prop57
140
1.0
102
RTVSPost2010PropOp57
 70
     0
102
RTVSPropertyOp0
 70
     0
102
RTVSPropertyOp1
 70
     0
102
RTVSPropertyOp2
 70
     0
102
RTVSPropertyOp3
 70
     0
102
RTVSPropertyOp4
 70
     0
102
RTVSPropertyOp5
 70
     0
102
RTVSPropertyOp6
 70
     0
102
RTVSPropertyOp7
 70
     0
102
RTVSPropertyOp8
 70
     0
102
RTVSPropertyOp9
 70
     0
102
RTVSPropertyOp10
 70
     0
102
RTVSPropertyOp11
 70
     0
102
RTVSPropertyOp12
 70
     0
102
RTVSPropertyOp13
 70
     0
102
RTVSPropertyOp14
 70
     2
102
RTVSPropertyOp15
 70
     0
102
RTVSPropertyOp16
 70
     0
102
RTVSPropertyOp17
 70
     0
102
RTVSPropertyOp18
 70
     0
102
RTVSPropertyOp19
 70
     0
102
RTVSPropertyOp20
 70
     0
102
RTVSPropertyOp21
 70
     0
102
RTVSPropertyOp22
 70
     0
102
RTVSPropertyOp23
 70
     0
102
RTVSPropertyOp24
 70
     0
102
RTVSPropertyOp25
 70
     0
102
RTVSPropertyOp26
 70
     0
102
RTVSPropertyOp27
 70
     0
102
RTVSPropertyOp28
 70
     1
102
RTVSPropertyOp29
 70
     1
102
RTVSPropertyOp30
 70
     1
102
RTVSPropertyOp31
 70
     1
102
RTVSPropertyOp32
 70
     1
102
RTVSPropertyOp33
 70
     1
102
RTVSPropertyOp34
 70
     1
102
RTVSPropertyOp35
 70
     1
102
RTVSPropertyOp36
 70
     1
102
RTVSPropertyOp37
 70
     0
102
RTVSPropertyOp38
 70
     0
102
RTVSPropertyOp39
 70
     0
102
RTVSPropertyOp40
 70
     0
102
RTVSPropertyOp41
 70
     0
102
RTVSPropertyOp42
 70
     0
102
RTVSPropertyOp43
 70
     0
102
RTVSPropertyOp44
 70
     0
102
RTVSPropertyOp45
 70
     1
102
RTVSPropertyOp46
 70
     0
102
RTVSPropertyOp47
 70
     0
102
RTVSPropertyOp48
 70
     0
102
RTVSPropertyOp49
 70
     1
102
RTVSPropertyOp50
 70
     0
102
RTVSPropertyOp51
 70
     0
102
RTVSPropertyOp52
 70
     0
102
RTVSPropertyOp53
 70
     0
102
RTVSPropertyOp54
 70
     0
102
RTVSPropertyOp55
 70
     1
102
RTVSPropertyOp56
 70
     0
102
RTVSPropertyOp57
 70
     0
102
RTVSPropertyOp58
 70
     0
102
RTVSPropertyOp59
 70
     0
102
RTVSPropertyOp60
 70
     0
102
RTVSPropertyOp61
 70
     0
102
RTVSPropertyOp62
 70
     0
  0
XRECORD
  5
3F9
102
{ACAD_REACTORS
330
3F8
102
}
330
3F8
100
AcDbXrecord
280
     1
102
RTVSPost2010Prop28
280
     0
102
RTVSPost2010PropOp28
 70
     1
102
RTVSPost2010Prop29
280
     1
102
RTVSPost2010PropOp29
 70
     1
102
RTVSPost2010Prop30
280
     1
102
RTVSPost2010PropOp30
 70
     1
102
RTVSPost2010Prop31
280
     0
102
RTVSPost2010PropOp31
 70
     1
102
RTVSPost2010Prop32
280
     0
102
RTVSPost2010PropOp32
 70
     1
102
RTVSPost2010Prop33
280
     0
102
RTVSPost2010PropOp33
 70
     1
102
RTVSPost2010Prop34
280
     0
102
RTVSPost2010PropOp34
 70
     1
102
RTVSPost2010Prop35
280
     0
102
RTVSPost2010PropOp35
 70
     1
102
RTVSPost2010Prop36
280
     0
102
RTVSPost2010PropOp36
 70
     1
102
RTVSPost2010Prop37
 90
       50
102
RTVSPost2010PropOp37
 70
     1
102
RTVSPost2010Prop38
140
0.0
102
RTVSPost2010PropOp38
 70
     1
102
RTVSPost2010Prop39
140
1.0
102
RTVSPost2010PropOp39
 70
     1
102
RTVSPost2010Prop40
 90
        0
102
RTVSPost2010PropOp40
 70
     1
102
RTVSPost2010Prop41ColorIndex
 90
       18
102
RTVSPost2010Prop41ColorRGB
 90
        0
102
RTVSPost2010PropOp41
 70
     1
102
RTVSPost2010Prop42
 90
       50
102
RTVSPost2010PropOp42
 70
     1
102
RTVSPost2010Prop43
 90
        3
102
RTVSPost2010PropOp43
 70
     1
102
RTVSPost2010Prop44ColorIndex
 90
        5
102
RTVSPost2010Prop44ColorRGB
 90
      255
102
RTVSPost2010PropOp44
 70
     1
102
RTVSPost2010Prop45
280
     0
102
RTVSPost2010PropOp45
 70
     1
102
RTVSPost2010Prop46
 90
       50
102
RTVSPost2010PropOp46
 70
     1
102
RTVSPost2010Prop47
 90
       50
102
RTVSPost2010PropOp47
 70
     1
102
RTVSPost2010Prop48
 90
       50
102
RTVSPost2010PropOp48
 70
     1
102
RTVSPost2010Prop49
280
     0
102
RTVSPost2010PropOp49
 70
     1
102
RTVSPost2010Prop50
 90
       50
102
RTVSPost2010PropOp50
 70
     1
102
RTVSPost2010Prop51ColorIndex
 90
      256
102
RTVSPost2010Prop51ColorRGB
 90
-16777216
102
RTVSPost2010PropOp51
 70
     0
102
RTVSPost2010Prop52
140
1.0
102
RTVSPost2010PropOp52
 70
     0
102
RTVSPost2010Prop53
 90
        2
102
RTVSPost2010PropOp53
 70
     1
102
RTVSPost2010Prop54
  1
strokes_ogs.tif
102
RTVSPost2010PropOp54
 70
     1
102
RTVSPost2010Prop55
280
     0
102
RTVSPost2010PropOp55
 70
     1
102
RTVSPost2010Prop56
140
1.0
102
RTVSPost2010PropOp56
 70
     1
102
RTVSPost2010Prop57
140
1.0
102
RTVSPost2010PropOp57
 70
     1
102
RTVSPropertyOp0
 70
     1
102
RTVSPropertyOp1
 70
     1
102
RTVSPropertyOp2
 70
     1
102
RTVSPropertyOp3
 70
     1
102
RTVSPropertyOp4
 70
     1
102
RTVSPropertyOp5
 70
     1
102
RTVSPropertyOp6
 70
     1
102
RTVSPropertyOp7
 70
     1
102
RTVSPropertyOp8
 70
     1
102
RTVSPropertyOp9
 70
     1
102
RTVSPropertyOp10
 70
     1
102
RTVSPropertyOp11
 70
     1
102
RTVSPropertyOp12
 70
     1
102
RTVSPropertyOp13
 70
     1
102
RTVSPropertyOp14
 70
     1
102
RTVSPropertyOp15
 70
     1
102
RTVSPropertyOp16
 70
     1
102
RTVSPropertyOp17
 70
     1
102
RTVSPropertyOp18
 70
     1
102
RTVSPropertyOp19
 70
     1
102
RTVSPropertyOp20
 70
     1
102
RTVSPropertyOp21
 70
     1
102
RTVSPropertyOp22
 70
     1
102
RTVSPropertyOp23
 70
     1
102
RTVSPropertyOp24
 70
     1
102
RTVSPropertyOp25
 70
     1
102
RTVSPropertyOp26
 70
     1
102
RTVSPropertyOp27
 70
     1
102
RTVSPropertyOp28
 70
     1
102
RTVSPropertyOp29
 70
     1
102
RTVSPropertyOp30
 70
     1
102
RTVSPropertyOp31
 70
     1
102
RTVSPropertyOp32
 70
     1
102
RTVSPropertyOp33
 70
     1
102
RTVSPropertyOp34
 70
     1
102
RTVSPropertyOp35
 70
     1
102
RTVSPropertyOp36
 70
     1
102
RTVSPropertyOp37
 70
     1
102
RTVSPropertyOp38
 70
     1
102
RTVSPropertyOp39
 70
     1
102
RTVSPropertyOp40
 70
     1
102
RTVSPropertyOp41
 70
     1
102
RTVSPropertyOp42
 70
     1
102
RTVSPropertyOp43
 70
     1
102
RTVSPropertyOp44
 70
     1
102
RTVSPropertyOp45
 70
     1
102
RTVSPropertyOp46
 70
     1
102
RTVSPropertyOp47
 70
     1
102
RTVSPropertyOp48
 70
     1
102
RTVSPropertyOp49
 70
     1
102
RTVSPropertyOp50
 70
     1
102
RTVSPropertyOp51
 70
     0
102
RTVSPropertyOp52
 70
     0
102
RTVSPropertyOp53
 70
     1
102
RTVSPropertyOp54
 70
     1
102
RTVSPropertyOp55
 70
     1
102
RTVSPropertyOp56
 70
     1
102
RTVSPropertyOp57
 70
     1
102
RTVSPropertyOp58
 70
     1
102
RTVSPropertyOp59
 70
     1
102
RTVSPropertyOp60
 70
     1
102
RTVSPropertyOp61
 70
     1
102
RTVSPropertyOp62
 70
     1
  0
XRECORD
  5
3DD
102
{ACAD_REACTORS
330
3DC
102
}
330
3DC
100
AcDbXrecord
280
     1
102
RTVSPost2010Prop28
280
     0
102
RTVSPost2010PropOp28
 70
     1
102
RTVSPost2010Prop29
280
     1
102
RTVSPost2010PropOp29
 70
     1
102
RTVSPost2010Prop30
280
     1
102
RTVSPost2010PropOp30
 70
     1
102
RTVSPost2010Prop31
280
     0
102
RTVSPost2010PropOp31
 70
     1
102
RTVSPost2010Prop32
280
     0
102
RTVSPost2010PropOp32
 70
     1
102
RTVSPost2010Prop33
280
     0
102
RTVSPost2010PropOp33
 70
     1
102
RTVSPost2010Prop34
280
     0
102
RTVSPost2010PropOp34
 70
     1
102
RTVSPost2010Prop35
280
     0
102
RTVSPost2010PropOp35
 70
     1
102
RTVSPost2010Prop36
280
     0
102
RTVSPost2010PropOp36
 70
     1
102
RTVSPost2010Prop37
 90
       50
102
RTVSPost2010PropOp37
 70
     1
102
RTVSPost2010Prop38
140
0.0
102
RTVSPost2010PropOp38
 70
     1
102
RTVSPost2010Prop39
140
1.0
102
RTVSPost2010PropOp39
 70
     1
102
RTVSPost2010Prop40
 90
        0
102
RTVSPost2010PropOp40
 70
     1
102
RTVSPost2010Prop41ColorIndex
 90
       18
102
RTVSPost2010Prop41ColorRGB
 90
        0
102
RTVSPost2010PropOp41
 70
     1
102
RTVSPost2010Prop42
 90
       50
102
RTVSPost2010PropOp42
 70
     1
102
RTVSPost2010Prop43
 90
        3
102
RTVSPost2010PropOp43
 70
     1
102
RTVSPost2010Prop44ColorIndex
 90
        5
102
RTVSPost2010Prop44ColorRGB
 90
      255
102
RTVSPost2010PropOp44
 70
     1
102
RTVSPost2010Prop45
280
     0
102
RTVSPost2010PropOp45
 70
     1
102
RTVSPost2010Prop46
 90
       50
102
RTVSPost2010PropOp46
 70
     1
102
RTVSPost2010Prop47
 90
       50
102
RTVSPost2010PropOp47
 70
     1
102
RTVSPost2010Prop48
 90
       50
102
RTVSPost2010PropOp48
 70
     1
102
RTVSPost2010Prop49
280
     0
102
RTVSPost2010PropOp49
 70
     1
102
RTVSPost2010Prop50
 90
       50
102
RTVSPost2010PropOp50
 70
     1
102
RTVSPost2010Prop51ColorIndex
 90
      256
102
RTVSPost2010Prop51ColorRGB
 90
-16777216
102
RTVSPost2010PropOp51
 70
     0
102
RTVSPost2010Prop52
140
1.0
102
RTVSPost2010PropOp52
 70
     0
102
RTVSPost2010Prop53
 90
        2
102
RTVSPost2010PropOp53
 70
     1
102
RTVSPost2010Prop54
  1
strokes_ogs.tif
102
RTVSPost2010PropOp54
 70
     1
102
RTVSPost2010Prop55
280
     0
102
RTVSPost2010PropOp55
 70
     1
102
RTVSPost2010Prop56
140
1.0
102
RTVSPost2010PropOp56
 70
     1
102
RTVSPost2010Prop57
140
1.0
102
RTVSPost2010PropOp57
 70
     1
102
RTVSPropertyOp0
 70
     1
102
RTVSPropertyOp1
 70
     1
102
RTVSPropertyOp2
 70
     1
102
RTVSPropertyOp3
 70
     1
102
RTVSPropertyOp4
 70
     1
102
RTVSPropertyOp5
 70
     1
102
RTVSPropertyOp6
 70
     1
102
RTVSPropertyOp7
 70
     1
102
RTVSPropertyOp8
 70
     1
102
RTVSPropertyOp9
 70
     1
102
RTVSPropertyOp10
 70
     1
102
RTVSPropertyOp11
 70
     1
102
RTVSPropertyOp12
 70
     1
102
RTVSPropertyOp13
 70
     1
102
RTVSPropertyOp14
 70
     1
102
RTVSPropertyOp15
 70
     1
102
RTVSPropertyOp16
 70
     1
102
RTVSPropertyOp17
 70
     1
102
RTVSPropertyOp18
 70
     1
102
RTVSPropertyOp19
 70
     1
102
RTVSPropertyOp20
 70
     1
102
RTVSPropertyOp21
 70
     1
102
RTVSPropertyOp22
 70
     1
102
RTVSPropertyOp23
 70
     1
102
RTVSPropertyOp24
 70
     1
102
RTVSPropertyOp25
 70
     1
102
RTVSPropertyOp26
 70
     1
102
RTVSPropertyOp27
 70
     1
102
RTVSPropertyOp28
 70
     1
102
RTVSPropertyOp29
 70
     1
102
RTVSPropertyOp30
 70
     1
102
RTVSPropertyOp31
 70
     1
102
RTVSPropertyOp32
 70
     1
102
RTVSPropertyOp33
 70
     1
102
RTVSPropertyOp34
 70
     1
102
RTVSPropertyOp35
 70
     1
102
RTVSPropertyOp36
 70
     1
102
RTVSPropertyOp37
 70
     1
102
RTVSPropertyOp38
 70
     1
102
RTVSPropertyOp39
 70
     1
102
RTVSPropertyOp40
 70
     1
102
RTVSPropertyOp41
 70
     1
102
RTVSPropertyOp42
 70
     1
102
RTVSPropertyOp43
 70
     1
102
RTVSPropertyOp44
 70
     1
102
RTVSPropertyOp45
 70
     1
102
RTVSPropertyOp46
 70
     1
102
RTVSPropertyOp47
 70
     1
102
RTVSPropertyOp48
 70
     1
102
RTVSPropertyOp49
 70
     1
102
RTVSPropertyOp50
 70
     1
102
RTVSPropertyOp51
 70
     0
102
RTVSPropertyOp52
 70
     0
102
RTVSPropertyOp53
 70
     1
102
RTVSPropertyOp54
 70
     1
102
RTVSPropertyOp55
 70
     1
102
RTVSPropertyOp56
 70
     1
102
RTVSPropertyOp57
 70
     1
102
RTVSPropertyOp58
 70
     1
102
RTVSPropertyOp59
 70
     1
102
RTVSPropertyOp60
 70
     1
102
RTVSPropertyOp61
 70
     1
102
RTVSPropertyOp62
 70
     1
  0
XRECORD
  5
3DF
102
{ACAD_REACTORS
330
3DE
102
}
330
3DE
100
AcDbXrecord
280
     1
102
RTVSPost2010Prop28
280
     0
102
RTVSPost2010PropOp28
 70
     1
102
RTVSPost2010Prop29
280
     1
102
RTVSPost2010PropOp29
 70
     1
102
RTVSPost2010Prop30
280
     1
102
RTVSPost2010PropOp30
 70
     1
102
RTVSPost2010Prop31
280
     0
102
RTVSPost2010PropOp31
 70
     1
102
RTVSPost2010Prop32
280
     0
102
RTVSPost2010PropOp32
 70
     1
102
RTVSPost2010Prop33
280
     0
102
RTVSPost2010PropOp33
 70
     1
102
RTVSPost2010Prop34
280
     0
102
RTVSPost2010PropOp34
 70
     1
102
RTVSPost2010Prop35
280
     0
102
RTVSPost2010PropOp35
 70
     1
102
RTVSPost2010Prop36
280
     0
102
RTVSPost2010PropOp36
 70
     1
102
RTVSPost2010Prop37
 90
       50
102
RTVSPost2010PropOp37
 70
     1
102
RTVSPost2010Prop38
140
0.0
102
RTVSPost2010PropOp38
 70
     1
102
RTVSPost2010Prop39
140
1.0
102
RTVSPost2010PropOp39
 70
     1
102
RTVSPost2010Prop40
 90
        0
102
RTVSPost2010PropOp40
 70
     1
102
RTVSPost2010Prop41ColorIndex
 90
       18
102
RTVSPost2010Prop41ColorRGB
 90
        0
102
RTVSPost2010PropOp41
 70
     1
102
RTVSPost2010Prop42
 90
       50
102
RTVSPost2010PropOp42
 70
     1
102
RTVSPost2010Prop43
 90
        3
102
RTVSPost2010PropOp43
 70
     1
102
RTVSPost2010Prop44ColorIndex
 90
        5
102
RTVSPost2010Prop44ColorRGB
 90
      255
102
RTVSPost2010PropOp44
 70
     1
102
RTVSPost2010Prop45
280
     0
102
RTVSPost2010PropOp45
 70
     1
102
RTVSPost2010Prop46
 90
       50
102
RTVSPost2010PropOp46
 70
     1
102
RTVSPost2010Prop47
 90
       50
102
RTVSPost2010PropOp47
 70
     1
102
RTVSPost2010Prop48
 90
       50
102
RTVSPost2010PropOp48
 70
     1
102
RTVSPost2010Prop49
280
     0
102
RTVSPost2010PropOp49
 70
     1
102
RTVSPost2010Prop50
 90
       50
102
RTVSPost2010PropOp50
 70
     1
102
RTVSPost2010Prop51ColorIndex
 90
      256
102
RTVSPost2010Prop51ColorRGB
 90
-16777216
102
RTVSPost2010PropOp51
 70
     0
102
RTVSPost2010Prop52
140
1.0
102
RTVSPost2010PropOp52
 70
     0
102
RTVSPost2010Prop53
 90
        2
102
RTVSPost2010PropOp53
 70
     1
102
RTVSPost2010Prop54
  1
strokes_ogs.tif
102
RTVSPost2010PropOp54
 70
     1
102
RTVSPost2010Prop55
280
     0
102
RTVSPost2010PropOp55
 70
     1
102
RTVSPost2010Prop56
140
1.0
102
RTVSPost2010PropOp56
 70
     1
102
RTVSPost2010Prop57
140
1.0
102
RTVSPost2010PropOp57
 70
     1
102
RTVSPropertyOp0
 70
     1
102
RTVSPropertyOp1
 70
     1
102
RTVSPropertyOp2
 70
     1
102
RTVSPropertyOp3
 70
     1
102
RTVSPropertyOp4
 70
     1
102
RTVSPropertyOp5
 70
     1
102
RTVSPropertyOp6
 70
     1
102
RTVSPropertyOp7
 70
     1
102
RTVSPropertyOp8
 70
     1
102
RTVSPropertyOp9
 70
     1
102
RTVSPropertyOp10
 70
     1
102
RTVSPropertyOp11
 70
     1
102
RTVSPropertyOp12
 70
     1
102
RTVSPropertyOp13
 70
     1
102
RTVSPropertyOp14
 70
     1
102
RTVSPropertyOp15
 70
     1
102
RTVSPropertyOp16
 70
     1
102
RTVSPropertyOp17
 70
     1
102
RTVSPropertyOp18
 70
     1
102
RTVSPropertyOp19
 70
     1
102
RTVSPropertyOp20
 70
     1
102
RTVSPropertyOp21
 70
     1
102
RTVSPropertyOp22
 70
     1
102
RTVSPropertyOp23
 70
     1
102
RTVSPropertyOp24
 70
     1
102
RTVSPropertyOp25
 70
     1
102
RTVSPropertyOp26
 70
     1
102
RTVSPropertyOp27
 70
     1
102
RTVSPropertyOp28
 70
     1
102
RTVSPropertyOp29
 70
     1
102
RTVSPropertyOp30
 70
     1
102
RTVSPropertyOp31
 70
     1
102
RTVSPropertyOp32
 70
     1
102
RTVSPropertyOp33
 70
     1
102
RTVSPropertyOp34
 70
     1
102
RTVSPropertyOp35
 70
     1
102
RTVSPropertyOp36
 70
     1
102
RTVSPropertyOp37
 70
     1
102
RTVSPropertyOp38
 70
     1
102
RTVSPropertyOp39
 70
     1
102
RTVSPropertyOp40
 70
     1
102
RTVSPropertyOp41
 70
     1
102
RTVSPropertyOp42
 70
     1
102
RTVSPropertyOp43
 70
     1
102
RTVSPropertyOp44
 70
     1
102
RTVSPropertyOp45
 70
     1
102
RTVSPropertyOp46
 70
     1
102
RTVSPropertyOp47
 70
     1
102
RTVSPropertyOp48
 70
     1
102
RTVSPropertyOp49
 70
     1
102
RTVSPropertyOp50
 70
     1
102
RTVSPropertyOp51
 70
     0
102
RTVSPropertyOp52
 70
     0
102
RTVSPropertyOp53
 70
     1
102
RTVSPropertyOp54
 70
     1
102
RTVSPropertyOp55
 70
     1
102
RTVSPropertyOp56
 70
     1
102
RTVSPropertyOp57
 70
     1
102
RTVSPropertyOp58
 70
     1
102
RTVSPropertyOp59
 70
     1
102
RTVSPropertyOp60
 70
     1
102
RTVSPropertyOp61
 70
     1
102
RTVSPropertyOp62
 70
     1
  0
XRECORD
  5
3E1
102
{ACAD_REACTORS
330
3E0
102
}
330
3E0
100
AcDbXrecord
280
     1
102
RTVSPost2010Prop28
280
     0
102
RTVSPost2010PropOp28
 70
     1
102
RTVSPost2010Prop29
280
     1
102
RTVSPost2010PropOp29
 70
     1
102
RTVSPost2010Prop30
280
     1
102
RTVSPost2010PropOp30
 70
     1
102
RTVSPost2010Prop31
280
     0
102
RTVSPost2010PropOp31
 70
     1
102
RTVSPost2010Prop32
280
     0
102
RTVSPost2010PropOp32
 70
     1
102
RTVSPost2010Prop33
280
     0
102
RTVSPost2010PropOp33
 70
     1
102
RTVSPost2010Prop34
280
     0
102
RTVSPost2010PropOp34
 70
     1
102
RTVSPost2010Prop35
280
     0
102
RTVSPost2010PropOp35
 70
     1
102
RTVSPost2010Prop36
280
     0
102
RTVSPost2010PropOp36
 70
     1
102
RTVSPost2010Prop37
 90
       50
102
RTVSPost2010PropOp37
 70
     1
102
RTVSPost2010Prop38
140
0.0
102
RTVSPost2010PropOp38
 70
     1
102
RTVSPost2010Prop39
140
1.0
102
RTVSPost2010PropOp39
 70
     1
102
RTVSPost2010Prop40
 90
        0
102
RTVSPost2010PropOp40
 70
     1
102
RTVSPost2010Prop41ColorIndex
 90
       18
102
RTVSPost2010Prop41ColorRGB
 90
        0
102
RTVSPost2010PropOp41
 70
     1
102
RTVSPost2010Prop42
 90
       50
102
RTVSPost2010PropOp42
 70
     1
102
RTVSPost2010Prop43
 90
        3
102
RTVSPost2010PropOp43
 70
     1
102
RTVSPost2010Prop44ColorIndex
 90
        5
102
RTVSPost2010Prop44ColorRGB
 90
      255
102
RTVSPost2010PropOp44
 70
     1
102
RTVSPost2010Prop45
280
     0
102
RTVSPost2010PropOp45
 70
     1
102
RTVSPost2010Prop46
 90
       50
102
RTVSPost2010PropOp46
 70
     1
102
RTVSPost2010Prop47
 90
       50
102
RTVSPost2010PropOp47
 70
     1
102
RTVSPost2010Prop48
 90
       50
102
RTVSPost2010PropOp48
 70
     1
102
RTVSPost2010Prop49
280
     0
102
RTVSPost2010PropOp49
 70
     1
102
RTVSPost2010Prop50
 90
       50
102
RTVSPost2010PropOp50
 70
     1
102
RTVSPost2010Prop51ColorIndex
 90
      256
102
RTVSPost2010Prop51ColorRGB
 90
-16777216
102
RTVSPost2010PropOp51
 70
     0
102
RTVSPost2010Prop52
140
1.0
102
RTVSPost2010PropOp52
 70
     0
102
RTVSPost2010Prop53
 90
        2
102
RTVSPost2010PropOp53
 70
     1
102
RTVSPost2010Prop54
  1
strokes_ogs.tif
102
RTVSPost2010PropOp54
 70
     1
102
RTVSPost2010Prop55
280
     0
102
RTVSPost2010PropOp55
 70
     1
102
RTVSPost2010Prop56
140
1.0
102
RTVSPost2010PropOp56
 70
     1
102
RTVSPost2010Prop57
140
1.0
102
RTVSPost2010PropOp57
 70
     1
102
RTVSPropertyOp0
 70
     1
102
RTVSPropertyOp1
 70
     1
102
RTVSPropertyOp2
 70
     1
102
RTVSPropertyOp3
 70
     1
102
RTVSPropertyOp4
 70
     1
102
RTVSPropertyOp5
 70
     1
102
RTVSPropertyOp6
 70
     1
102
RTVSPropertyOp7
 70
     1
102
RTVSPropertyOp8
 70
     1
102
RTVSPropertyOp9
 70
     1
102
RTVSPropertyOp10
 70
     1
102
RTVSPropertyOp11
 70
     1
102
RTVSPropertyOp12
 70
     1
102
RTVSPropertyOp13
 70
     1
102
RTVSPropertyOp14
 70
     1
102
RTVSPropertyOp15
 70
     1
102
RTVSPropertyOp16
 70
     1
102
RTVSPropertyOp17
 70
     1
102
RTVSPropertyOp18
 70
     1
102
RTVSPropertyOp19
 70
     1
102
RTVSPropertyOp20
 70
     1
102
RTVSPropertyOp21
 70
     1
102
RTVSPropertyOp22
 70
     1
102
RTVSPropertyOp23
 70
     1
102
RTVSPropertyOp24
 70
     1
102
RTVSPropertyOp25
 70
     1
102
RTVSPropertyOp26
 70
     1
102
RTVSPropertyOp27
 70
     1
102
RTVSPropertyOp28
 70
     1
102
RTVSPropertyOp29
 70
     1
102
RTVSPropertyOp30
 70
     1
102
RTVSPropertyOp31
 70
     1
102
RTVSPropertyOp32
 70
     1
102
RTVSPropertyOp33
 70
     1
102
RTVSPropertyOp34
 70
     1
102
RTVSPropertyOp35
 70
     1
102
RTVSPropertyOp36
 70
     1
102
RTVSPropertyOp37
 70
     1
102
RTVSPropertyOp38
 70
     1
102
RTVSPropertyOp39
 70
     1
102
RTVSPropertyOp40
 70
     1
102
RTVSPropertyOp41
 70
     1
102
RTVSPropertyOp42
 70
     1
102
RTVSPropertyOp43
 70
     1
102
RTVSPropertyOp44
 70
     1
102
RTVSPropertyOp45
 70
     1
102
RTVSPropertyOp46
 70
     1
102
RTVSPropertyOp47
 70
     1
102
RTVSPropertyOp48
 70
     1
102
RTVSPropertyOp49
 70
     1
102
RTVSPropertyOp50
 70
     1
102
RTVSPropertyOp51
 70
     0
102
RTVSPropertyOp52
 70
     0
102
RTVSPropertyOp53
 70
     1
102
RTVSPropertyOp54
 70
     1
102
RTVSPropertyOp55
 70
     1
102
RTVSPropertyOp56
 70
     1
102
RTVSPropertyOp57
 70
     1
102
RTVSPropertyOp58
 70
     1
102
RTVSPropertyOp59
 70
     1
102
RTVSPropertyOp60
 70
     1
102
RTVSPropertyOp61
 70
     1
102
RTVSPropertyOp62
 70
     1
  0
XRECORD
  5
3E3
102
{ACAD_REACTORS
330
3E2
102
}
330
3E2
100
AcDbXrecord
280
     1
102
RTVSPost2010Prop28
280
     0
102
RTVSPost2010PropOp28
 70
     1
102
RTVSPost2010Prop29
280
     1
102
RTVSPost2010PropOp29
 70
     1
102
RTVSPost2010Prop30
280
     1
102
RTVSPost2010PropOp30
 70
     1
102
RTVSPost2010Prop31
280
     0
102
RTVSPost2010PropOp31
 70
     1
102
RTVSPost2010Prop32
280
     0
102
RTVSPost2010PropOp32
 70
     1
102
RTVSPost2010Prop33
280
     0
102
RTVSPost2010PropOp33
 70
     1
102
RTVSPost2010Prop34
280
     0
102
RTVSPost2010PropOp34
 70
     1
102
RTVSPost2010Prop35
280
     0
102
RTVSPost2010PropOp35
 70
     1
102
RTVSPost2010Prop36
280
     0
102
RTVSPost2010PropOp36
 70
     1
102
RTVSPost2010Prop37
 90
       50
102
RTVSPost2010PropOp37
 70
     1
102
RTVSPost2010Prop38
140
0.0
102
RTVSPost2010PropOp38
 70
     1
102
RTVSPost2010Prop39
140
1.0
102
RTVSPost2010PropOp39
 70
     1
102
RTVSPost2010Prop40
 90
        0
102
RTVSPost2010PropOp40
 70
     1
102
RTVSPost2010Prop41ColorIndex
 90
       18
102
RTVSPost2010Prop41ColorRGB
 90
        0
102
RTVSPost2010PropOp41
 70
     1
102
RTVSPost2010Prop42
 90
       50
102
RTVSPost2010PropOp42
 70
     1
102
RTVSPost2010Prop43
 90
        3
102
RTVSPost2010PropOp43
 70
     1
102
RTVSPost2010Prop44ColorIndex
 90
        5
102
RTVSPost2010Prop44ColorRGB
 90
      255
102
RTVSPost2010PropOp44
 70
     1
102
RTVSPost2010Prop45
280
     0
102
RTVSPost2010PropOp45
 70
     1
102
RTVSPost2010Prop46
 90
       50
102
RTVSPost2010PropOp46
 70
     1
102
RTVSPost2010Prop47
 90
       50
102
RTVSPost2010PropOp47
 70
     1
102
RTVSPost2010Prop48
 90
       50
102
RTVSPost2010PropOp48
 70
     1
102
RTVSPost2010Prop49
280
     0
102
RTVSPost2010PropOp49
 70
     1
102
RTVSPost2010Prop50
 90
       50
102
RTVSPost2010PropOp50
 70
     1
102
RTVSPost2010Prop51ColorIndex
 90
      256
102
RTVSPost2010Prop51ColorRGB
 90
-16777216
102
RTVSPost2010PropOp51
 70
     0
102
RTVSPost2010Prop52
140
1.0
102
RTVSPost2010PropOp52
 70
     0
102
RTVSPost2010Prop53
 90
        2
102
RTVSPost2010PropOp53
 70
     1
102
RTVSPost2010Prop54
  1
strokes_ogs.tif
102
RTVSPost2010PropOp54
 70
     1
102
RTVSPost2010Prop55
280
     0
102
RTVSPost2010PropOp55
 70
     1
102
RTVSPost2010Prop56
140
1.0
102
RTVSPost2010PropOp56
 70
     1
102
RTVSPost2010Prop57
140
1.0
102
RTVSPost2010PropOp57
 70
     1
102
RTVSPropertyOp0
 70
     1
102
RTVSPropertyOp1
 70
     1
102
RTVSPropertyOp2
 70
     1
102
RTVSPropertyOp3
 70
     1
102
RTVSPropertyOp4
 70
     1
102
RTVSPropertyOp5
 70
     1
102
RTVSPropertyOp6
 70
     1
102
RTVSPropertyOp7
 70
     1
102
RTVSPropertyOp8
 70
     1
102
RTVSPropertyOp9
 70
     1
102
RTVSPropertyOp10
 70
     1
102
RTVSPropertyOp11
 70
     1
102
RTVSPropertyOp12
 70
     1
102
RTVSPropertyOp13
 70
     1
102
RTVSPropertyOp14
 70
     1
102
RTVSPropertyOp15
 70
     1
102
RTVSPropertyOp16
 70
     1
102
RTVSPropertyOp17
 70
     1
102
RTVSPropertyOp18
 70
     1
102
RTVSPropertyOp19
 70
     1
102
RTVSPropertyOp20
 70
     1
102
RTVSPropertyOp21
 70
     1
102
RTVSPropertyOp22
 70
     1
102
RTVSPropertyOp23
 70
     1
102
RTVSPropertyOp24
 70
     1
102
RTVSPropertyOp25
 70
     1
102
RTVSPropertyOp26
 70
     1
102
RTVSPropertyOp27
 70
     1
102
RTVSPropertyOp28
 70
     1
102
RTVSPropertyOp29
 70
     1
102
RTVSPropertyOp30
 70
     1
102
RTVSPropertyOp31
 70
     1
102
RTVSPropertyOp32
 70
     1
102
RTVSPropertyOp33
 70
     1
102
RTVSPropertyOp34
 70
     1
102
RTVSPropertyOp35
 70
     1
102
RTVSPropertyOp36
 70
     1
102
RTVSPropertyOp37
 70
     1
102
RTVSPropertyOp38
 70
     1
102
RTVSPropertyOp39
 70
     1
102
RTVSPropertyOp40
 70
     1
102
RTVSPropertyOp41
 70
     1
102
RTVSPropertyOp42
 70
     1
102
RTVSPropertyOp43
 70
     1
102
RTVSPropertyOp44
 70
     1
102
RTVSPropertyOp45
 70
     1
102
RTVSPropertyOp46
 70
     1
102
RTVSPropertyOp47
 70
     1
102
RTVSPropertyOp48
 70
     1
102
RTVSPropertyOp49
 70
     1
102
RTVSPropertyOp50
 70
     1
102
RTVSPropertyOp51
 70
     0
102
RTVSPropertyOp52
 70
     0
102
RTVSPropertyOp53
 70
     1
102
RTVSPropertyOp54
 70
     1
102
RTVSPropertyOp55
 70
     1
102
RTVSPropertyOp56
 70
     1
102
RTVSPropertyOp57
 70
     1
102
RTVSPropertyOp58
 70
     1
102
RTVSPropertyOp59
 70
     1
102
RTVSPropertyOp60
 70
     1
102
RTVSPropertyOp61
 70
     1
102
RTVSPropertyOp62
 70
     1
  0
XRECORD
  5
3EB
102
{ACAD_REACTORS
330
3EA
102
}
330
3EA
100
AcDbXrecord
280
     1
102
RTVSPost2010Prop28
280
     0
102
RTVSPost2010PropOp28
 70
     1
102
RTVSPost2010Prop29
280
     1
102
RTVSPost2010PropOp29
 70
     1
102
RTVSPost2010Prop30
280
     1
102
RTVSPost2010PropOp30
 70
     1
102
RTVSPost2010Prop31
280
     0
102
RTVSPost2010PropOp31
 70
     1
102
RTVSPost2010Prop32
280
     0
102
RTVSPost2010PropOp32
 70
     1
102
RTVSPost2010Prop33
280
     0
102
RTVSPost2010PropOp33
 70
     1
102
RTVSPost2010Prop34
280
     0
102
RTVSPost2010PropOp34
 70
     1
102
RTVSPost2010Prop35
280
     0
102
RTVSPost2010PropOp35
 70
     1
102
RTVSPost2010Prop36
280
     0
102
RTVSPost2010PropOp36
 70
     1
102
RTVSPost2010Prop37
 90
       50
102
RTVSPost2010PropOp37
 70
     1
102
RTVSPost2010Prop38
140
0.0
102
RTVSPost2010PropOp38
 70
     1
102
RTVSPost2010Prop39
140
1.0
102
RTVSPost2010PropOp39
 70
     1
102
RTVSPost2010Prop40
 90
        0
102
RTVSPost2010PropOp40
 70
     1
102
RTVSPost2010Prop41ColorIndex
 90
       18
102
RTVSPost2010Prop41ColorRGB
 90
        0
102
RTVSPost2010PropOp41
 70
     1
102
RTVSPost2010Prop42
 90
       50
102
RTVSPost2010PropOp42
 70
     1
102
RTVSPost2010Prop43
 90
        3
102
RTVSPost2010PropOp43
 70
     1
102
RTVSPost2010Prop44ColorIndex
 90
        5
102
RTVSPost2010Prop44ColorRGB
 90
      255
102
RTVSPost2010PropOp44
 70
     1
102
RTVSPost2010Prop45
280
     0
102
RTVSPost2010PropOp45
 70
     1
102
RTVSPost2010Prop46
 90
       50
102
RTVSPost2010PropOp46
 70
     1
102
RTVSPost2010Prop47
 90
       50
102
RTVSPost2010PropOp47
 70
     1
102
RTVSPost2010Prop48
 90
       50
102
RTVSPost2010PropOp48
 70
     1
102
RTVSPost2010Prop49
280
     0
102
RTVSPost2010PropOp49
 70
     1
102
RTVSPost2010Prop50
 90
       50
102
RTVSPost2010PropOp50
 70
     1
102
RTVSPost2010Prop51ColorIndex
 90
      256
102
RTVSPost2010Prop51ColorRGB
 90
-16777216
102
RTVSPost2010PropOp51
 70
     0
102
RTVSPost2010Prop52
140
1.0
102
RTVSPost2010PropOp52
 70
     0
102
RTVSPost2010Prop53
 90
        2
102
RTVSPost2010PropOp53
 70
     1
102
RTVSPost2010Prop54
  1
strokes_ogs.tif
102
RTVSPost2010PropOp54
 70
     1
102
RTVSPost2010Prop55
280
     0
102
RTVSPost2010PropOp55
 70
     1
102
RTVSPost2010Prop56
140
1.0
102
RTVSPost2010PropOp56
 70
     1
102
RTVSPost2010Prop57
140
1.0
102
RTVSPost2010PropOp57
 70
     1
102
RTVSPropertyOp0
 70
     1
102
RTVSPropertyOp1
 70
     1
102
RTVSPropertyOp2
 70
     1
102
RTVSPropertyOp3
 70
     1
102
RTVSPropertyOp4
 70
     1
102
RTVSPropertyOp5
 70
     1
102
RTVSPropertyOp6
 70
     1
102
RTVSPropertyOp7
 70
     1
102
RTVSPropertyOp8
 70
     1
102
RTVSPropertyOp9
 70
     1
102
RTVSPropertyOp10
 70
     1
102
RTVSPropertyOp11
 70
     1
102
RTVSPropertyOp12
 70
     1
102
RTVSPropertyOp13
 70
     1
102
RTVSPropertyOp14
 70
     1
102
RTVSPropertyOp15
 70
     1
102
RTVSPropertyOp16
 70
     1
102
RTVSPropertyOp17
 70
     1
102
RTVSPropertyOp18
 70
     1
102
RTVSPropertyOp19
 70
     1
102
RTVSPropertyOp20
 70
     1
102
RTVSPropertyOp21
 70
     1
102
RTVSPropertyOp22
 70
     1
102
RTVSPropertyOp23
 70
     1
102
RTVSPropertyOp24
 70
     1
102
RTVSPropertyOp25
 70
     1
102
RTVSPropertyOp26
 70
     1
102
RTVSPropertyOp27
 70
     1
102
RTVSPropertyOp28
 70
     1
102
RTVSPropertyOp29
 70
     1
102
RTVSPropertyOp30
 70
     1
102
RTVSPropertyOp31
 70
     1
102
RTVSPropertyOp32
 70
     1
102
RTVSPropertyOp33
 70
     1
102
RTVSPropertyOp34
 70
     1
102
RTVSPropertyOp35
 70
     1
102
RTVSPropertyOp36
 70
     1
102
RTVSPropertyOp37
 70
     1
102
RTVSPropertyOp38
 70
     1
102
RTVSPropertyOp39
 70
     1
102
RTVSPropertyOp40
 70
     1
102
RTVSPropertyOp41
 70
     1
102
RTVSPropertyOp42
 70
     1
102
RTVSPropertyOp43
 70
     1
102
RTVSPropertyOp44
 70
     1
102
RTVSPropertyOp45
 70
     1
102
RTVSPropertyOp46
 70
     1
102
RTVSPropertyOp47
 70
     1
102
RTVSPropertyOp48
 70
     1
102
RTVSPropertyOp49
 70
     1
102
RTVSPropertyOp50
 70
     1
102
RTVSPropertyOp51
 70
     0
102
RTVSPropertyOp52
 70
     0
102
RTVSPropertyOp53
 70
     1
102
RTVSPropertyOp54
 70
     1
102
RTVSPropertyOp55
 70
     1
102
RTVSPropertyOp56
 70
     1
102
RTVSPropertyOp57
 70
     1
102
RTVSPropertyOp58
 70
     1
102
RTVSPropertyOp59
 70
     1
102
RTVSPropertyOp60
 70
     1
102
RTVSPropertyOp61
 70
     1
102
RTVSPropertyOp62
 70
     1
  0
XRECORD
  5
407
102
{ACAD_REACTORS
330
406
102
}
330
406
100
AcDbXrecord
280
     1
102
RTVSPost2010Prop28
280
     0
102
RTVSPost2010PropOp28
 70
     1
102
RTVSPost2010Prop29
280
     1
102
RTVSPost2010PropOp29
 70
     1
102
RTVSPost2010Prop30
280
     1
102
RTVSPost2010PropOp30
 70
     1
102
RTVSPost2010Prop31
280
     0
102
RTVSPost2010PropOp31
 70
     1
102
RTVSPost2010Prop32
280
     0
102
RTVSPost2010PropOp32
 70
     1
102
RTVSPost2010Prop33
280
     0
102
RTVSPost2010PropOp33
 70
     1
102
RTVSPost2010Prop34
280
     0
102
RTVSPost2010PropOp34
 70
     1
102
RTVSPost2010Prop35
280
     0
102
RTVSPost2010PropOp35
 70
     1
102
RTVSPost2010Prop36
280
     0
102
RTVSPost2010PropOp36
 70
     1
102
RTVSPost2010Prop37
 90
       50
102
RTVSPost2010PropOp37
 70
     0
102
RTVSPost2010Prop38
140
0.0
102
RTVSPost2010PropOp38
 70
     0
102
RTVSPost2010Prop39
140
1.0
102
RTVSPost2010PropOp39
 70
     0
102
RTVSPost2010Prop40
 90
        0
102
RTVSPost2010PropOp40
 70
     0
102
RTVSPost2010Prop41ColorIndex
 90
       18
102
RTVSPost2010Prop41ColorRGB
 90
        0
102
RTVSPost2010PropOp41
 70
     0
102
RTVSPost2010Prop42
 90
       50
102
RTVSPost2010PropOp42
 70
     0
102
RTVSPost2010Prop43
 90
        3
102
RTVSPost2010PropOp43
 70
     0
102
RTVSPost2010Prop44ColorIndex
 90
        5
102
RTVSPost2010Prop44ColorRGB
 90
      255
102
RTVSPost2010PropOp44
 70
     0
102
RTVSPost2010Prop45
280
     0
102
RTVSPost2010PropOp45
 70
     1
102
RTVSPost2010Prop46
 90
       50
102
RTVSPost2010PropOp46
 70
     0
102
RTVSPost2010Prop47
 90
       50
102
RTVSPost2010PropOp47
 70
     0
102
RTVSPost2010Prop48
 90
       50
102
RTVSPost2010PropOp48
 70
     0
102
RTVSPost2010Prop49
280
     0
102
RTVSPost2010PropOp49
 70
     1
102
RTVSPost2010Prop50
 90
       50
102
RTVSPost2010PropOp50
 70
     0
102
RTVSPost2010Prop51ColorIndex
 90
      256
102
RTVSPost2010Prop51ColorRGB
 90
-16777216
102
RTVSPost2010PropOp51
 70
     0
102
RTVSPost2010Prop52
140
1.0
102
RTVSPost2010PropOp52
 70
     0
102
RTVSPost2010Prop53
 90
        2
102
RTVSPost2010PropOp53
 70
     0
102
RTVSPost2010Prop54
  1
strokes_ogs.tif
102
RTVSPost2010PropOp54
 70
     0
102
RTVSPost2010Prop55
280
     0
102
RTVSPost2010PropOp55
 70
     1
102
RTVSPost2010Prop56
140
1.0
102
RTVSPost2010PropOp56
 70
     0
102
RTVSPost2010Prop57
140
1.0
102
RTVSPost2010PropOp57
 70
     0
102
RTVSPropertyOp0
 70
     0
102
RTVSPropertyOp1
 70
     0
102
RTVSPropertyOp2
 70
     0
102
RTVSPropertyOp3
 70
     0
102
RTVSPropertyOp4
 70
     0
102
RTVSPropertyOp5
 70
     0
102
RTVSPropertyOp6
 70
     0
102
RTVSPropertyOp7
 70
     0
102
RTVSPropertyOp8
 70
     0
102
RTVSPropertyOp9
 70
     0
102
RTVSPropertyOp10
 70
     0
102
RTVSPropertyOp11
 70
     0
102
RTVSPropertyOp12
 70
     0
102
RTVSPropertyOp13
 70
     0
102
RTVSPropertyOp14
 70
     2
102
RTVSPropertyOp15
 70
     0
102
RTVSPropertyOp16
 70
     0
102
RTVSPropertyOp17
 70
     0
102
RTVSPropertyOp18
 70
     0
102
RTVSPropertyOp19
 70
     0
102
RTVSPropertyOp20
 70
     0
102
RTVSPropertyOp21
 70
     0
102
RTVSPropertyOp22
 70
     0
102
RTVSPropertyOp23
 70
     0
102
RTVSPropertyOp24
 70
     0
102
RTVSPropertyOp25
 70
     0
102
RTVSPropertyOp26
 70
     0
102
RTVSPropertyOp27
 70
     0
102
RTVSPropertyOp28
 70
     1
102
RTVSPropertyOp29
 70
     1
102
RTVSPropertyOp30
 70
     1
102
RTVSPropertyOp31
 70
     1
102
RTVSPropertyOp32
 70
     1
102
RTVSPropertyOp33
 70
     1
102
RTVSPropertyOp34
 70
     1
102
RTVSPropertyOp35
 70
     1
102
RTVSPropertyOp36
 70
     1
102
RTVSPropertyOp37
 70
     0
102
RTVSPropertyOp38
 70
     0
102
RTVSPropertyOp39
 70
     0
102
RTVSPropertyOp40
 70
     0
102
RTVSPropertyOp41
 70
     0
102
RTVSPropertyOp42
 70
     0
102
RTVSPropertyOp43
 70
     0
102
RTVSPropertyOp44
 70
     0
102
RTVSPropertyOp45
 70
     1
102
RTVSPropertyOp46
 70
     0
102
RTVSPropertyOp47
 70
     0
102
RTVSPropertyOp48
 70
     0
102
RTVSPropertyOp49
 70
     1
102
RTVSPropertyOp50
 70
     0
102
RTVSPropertyOp51
 70
     0
102
RTVSPropertyOp52
 70
     0
102
RTVSPropertyOp53
 70
     0
102
RTVSPropertyOp54
 70
     0
102
RTVSPropertyOp55
 70
     1
102
RTVSPropertyOp56
 70
     0
102
RTVSPropertyOp57
 70
     0
102
RTVSPropertyOp58
 70
     0
102
RTVSPropertyOp59
 70
     0
102
RTVSPropertyOp60
 70
     0
102
RTVSPropertyOp61
 70
     0
102
RTVSPropertyOp62
 70
     0
  0
XRECORD
  5
3F7
102
{ACAD_REACTORS
330
3F6
102
}
330
3F6
100
AcDbXrecord
280
     1
102
RTVSPost2010Prop28
280
     0
102
RTVSPost2010PropOp28
 70
     1
102
RTVSPost2010Prop29
280
     1
102
RTVSPost2010PropOp29
 70
     1
102
RTVSPost2010Prop30
280
     1
102
RTVSPost2010PropOp30
 70
     1
102
RTVSPost2010Prop31
280
     0
102
RTVSPost2010PropOp31
 70
     1
102
RTVSPost2010Prop32
280
     0
102
RTVSPost2010PropOp32
 70
     1
102
RTVSPost2010Prop33
280
     0
102
RTVSPost2010PropOp33
 70
     1
102
RTVSPost2010Prop34
280
     0
102
RTVSPost2010PropOp34
 70
     1
102
RTVSPost2010Prop35
280
     0
102
RTVSPost2010PropOp35
 70
     1
102
RTVSPost2010Prop36
280
     0
102
RTVSPost2010PropOp36
 70
     1
102
RTVSPost2010Prop37
 90
       50
102
RTVSPost2010PropOp37
 70
     1
102
RTVSPost2010Prop38
140
0.0
102
RTVSPost2010PropOp38
 70
     1
102
RTVSPost2010Prop39
140
1.0
102
RTVSPost2010PropOp39
 70
     1
102
RTVSPost2010Prop40
 90
        0
102
RTVSPost2010PropOp40
 70
     1
102
RTVSPost2010Prop41ColorIndex
 90
       18
102
RTVSPost2010Prop41ColorRGB
 90
        0
102
RTVSPost2010PropOp41
 70
     1
102
RTVSPost2010Prop42
 90
       50
102
RTVSPost2010PropOp42
 70
     1
102
RTVSPost2010Prop43
 90
        3
102
RTVSPost2010PropOp43
 70
     1
102
RTVSPost2010Prop44ColorIndex
 90
        5
102
RTVSPost2010Prop44ColorRGB
 90
      255
102
RTVSPost2010PropOp44
 70
     1
102
RTVSPost2010Prop45
280
     0
102
RTVSPost2010PropOp45
 70
     1
102
RTVSPost2010Prop46
 90
       50
102
RTVSPost2010PropOp46
 70
     1
102
RTVSPost2010Prop47
 90
       50
102
RTVSPost2010PropOp47
 70
     1
102
RTVSPost2010Prop48
 90
       50
102
RTVSPost2010PropOp48
 70
     1
102
RTVSPost2010Prop49
280
     0
102
RTVSPost2010PropOp49
 70
     1
102
RTVSPost2010Prop50
 90
       50
102
RTVSPost2010PropOp50
 70
     1
102
RTVSPost2010Prop51ColorIndex
 90
      256
102
RTVSPost2010Prop51ColorRGB
 90
-16777216
102
RTVSPost2010PropOp51
 70
     0
102
RTVSPost2010Prop52
140
1.0
102
RTVSPost2010PropOp52
 70
     0
102
RTVSPost2010Prop53
 90
        2
102
RTVSPost2010PropOp53
 70
     1
102
RTVSPost2010Prop54
  1
strokes_ogs.tif
102
RTVSPost2010PropOp54
 70
     1
102
RTVSPost2010Prop55
280
     0
102
RTVSPost2010PropOp55
 70
     1
102
RTVSPost2010Prop56
140
1.0
102
RTVSPost2010PropOp56
 70
     1
102
RTVSPost2010Prop57
140
1.0
102
RTVSPost2010PropOp57
 70
     1
102
RTVSPropertyOp0
 70
     1
102
RTVSPropertyOp1
 70
     1
102
RTVSPropertyOp2
 70
     1
102
RTVSPropertyOp3
 70
     1
102
RTVSPropertyOp4
 70
     1
102
RTVSPropertyOp5
 70
     1
102
RTVSPropertyOp6
 70
     1
102
RTVSPropertyOp7
 70
     1
102
RTVSPropertyOp8
 70
     1
102
RTVSPropertyOp9
 70
     1
102
RTVSPropertyOp10
 70
     1
102
RTVSPropertyOp11
 70
     1
102
RTVSPropertyOp12
 70
     1
102
RTVSPropertyOp13
 70
     1
102
RTVSPropertyOp14
 70
     1
102
RTVSPropertyOp15
 70
     1
102
RTVSPropertyOp16
 70
     1
102
RTVSPropertyOp17
 70
     1
102
RTVSPropertyOp18
 70
     1
102
RTVSPropertyOp19
 70
     1
102
RTVSPropertyOp20
 70
     1
102
RTVSPropertyOp21
 70
     1
102
RTVSPropertyOp22
 70
     1
102
RTVSPropertyOp23
 70
     1
102
RTVSPropertyOp24
 70
     1
102
RTVSPropertyOp25
 70
     1
102
RTVSPropertyOp26
 70
     1
102
RTVSPropertyOp27
 70
     1
102
RTVSPropertyOp28
 70
     1
102
RTVSPropertyOp29
 70
     1
102
RTVSPropertyOp30
 70
     1
102
RTVSPropertyOp31
 70
     1
102
RTVSPropertyOp32
 70
     1
102
RTVSPropertyOp33
 70
     1
102
RTVSPropertyOp34
 70
     1
102
RTVSPropertyOp35
 70
     1
102
RTVSPropertyOp36
 70
     1
102
RTVSPropertyOp37
 70
     1
102
RTVSPropertyOp38
 70
     1
102
RTVSPropertyOp39
 70
     1
102
RTVSPropertyOp40
 70
     1
102
RTVSPropertyOp41
 70
     1
102
RTVSPropertyOp42
 70
     1
102
RTVSPropertyOp43
 70
     1
102
RTVSPropertyOp44
 70
     1
102
RTVSPropertyOp45
 70
     1
102
RTVSPropertyOp46
 70
     1
102
RTVSPropertyOp47
 70
     1
102
RTVSPropertyOp48
 70
     1
102
RTVSPropertyOp49
 70
     1
102
RTVSPropertyOp50
 70
     1
102
RTVSPropertyOp51
 70
     0
102
RTVSPropertyOp52
 70
     0
102
RTVSPropertyOp53
 70
     1
102
RTVSPropertyOp54
 70
     1
102
RTVSPropertyOp55
 70
     1
102
RTVSPropertyOp56
 70
     1
102
RTVSPropertyOp57
 70
     1
102
RTVSPropertyOp58
 70
     1
102
RTVSPropertyOp59
 70
     1
102
RTVSPropertyOp60
 70
     1
102
RTVSPropertyOp61
 70
     1
102
RTVSPropertyOp62
 70
     1
  0
XRECORD
  5
409
102
{ACAD_REACTORS
330
408
102
}
330
408
100
AcDbXrecord
280
     1
102
RTVSPost2010Prop28
280
     0
102
RTVSPost2010PropOp28
 70
     1
102
RTVSPost2010Prop29
280
     1
102
RTVSPost2010PropOp29
 70
     1
102
RTVSPost2010Prop30
280
     1
102
RTVSPost2010PropOp30
 70
     1
102
RTVSPost2010Prop31
280
     0
102
RTVSPost2010PropOp31
 70
     1
102
RTVSPost2010Prop32
280
     0
102
RTVSPost2010PropOp32
 70
     1
102
RTVSPost2010Prop33
280
     0
102
RTVSPost2010PropOp33
 70
     1
102
RTVSPost2010Prop34
280
     0
102
RTVSPost2010PropOp34
 70
     1
102
RTVSPost2010Prop35
280
     0
102
RTVSPost2010PropOp35
 70
     1
102
RTVSPost2010Prop36
280
     0
102
RTVSPost2010PropOp36
 70
     1
102
RTVSPost2010Prop37
 90
       50
102
RTVSPost2010PropOp37
 70
     0
102
RTVSPost2010Prop38
140
0.0
102
RTVSPost2010PropOp38
 70
     0
102
RTVSPost2010Prop39
140
1.0
102
RTVSPost2010PropOp39
 70
     0
102
RTVSPost2010Prop40
 90
        0
102
RTVSPost2010PropOp40
 70
     0
102
RTVSPost2010Prop41ColorIndex
 90
       18
102
RTVSPost2010Prop41ColorRGB
 90
        0
102
RTVSPost2010PropOp41
 70
     0
102
RTVSPost2010Prop42
 90
       50
102
RTVSPost2010PropOp42
 70
     0
102
RTVSPost2010Prop43
 90
        3
102
RTVSPost2010PropOp43
 70
     0
102
RTVSPost2010Prop44ColorIndex
 90
        5
102
RTVSPost2010Prop44ColorRGB
 90
      255
102
RTVSPost2010PropOp44
 70
     0
102
RTVSPost2010Prop45
280
     0
102
RTVSPost2010PropOp45
 70
     1
102
RTVSPost2010Prop46
 90
       50
102
RTVSPost2010PropOp46
 70
     0
102
RTVSPost2010Prop47
 90
       50
102
RTVSPost2010PropOp47
 70
     0
102
RTVSPost2010Prop48
 90
       50
102
RTVSPost2010PropOp48
 70
     0
102
RTVSPost2010Prop49
280
     0
102
RTVSPost2010PropOp49
 70
     1
102
RTVSPost2010Prop50
 90
       50
102
RTVSPost2010PropOp50
 70
     0
102
RTVSPost2010Prop51ColorIndex
 90
      256
102
RTVSPost2010Prop51ColorRGB
 90
-16777216
102
RTVSPost2010PropOp51
 70
     0
102
RTVSPost2010Prop52
140
1.0
102
RTVSPost2010PropOp52
 70
     0
102
RTVSPost2010Prop53
 90
        2
102
RTVSPost2010PropOp53
 70
     0
102
RTVSPost2010Prop54
  1
strokes_ogs.tif
102
RTVSPost2010PropOp54
 70
     0
102
RTVSPost2010Prop55
280
     0
102
RTVSPost2010PropOp55
 70
     1
102
RTVSPost2010Prop56
140
1.0
102
RTVSPost2010PropOp56
 70
     0
102
RTVSPost2010Prop57
140
1.0
102
RTVSPost2010PropOp57
 70
     0
102
RTVSPropertyOp0
 70
     0
102
RTVSPropertyOp1
 70
     0
102
RTVSPropertyOp2
 70
     0
102
RTVSPropertyOp3
 70
     0
102
RTVSPropertyOp4
 70
     0
102
RTVSPropertyOp5
 70
     0
102
RTVSPropertyOp6
 70
     0
102
RTVSPropertyOp7
 70
     0
102
RTVSPropertyOp8
 70
     0
102
RTVSPropertyOp9
 70
     0
102
RTVSPropertyOp10
 70
     0
102
RTVSPropertyOp11
 70
     0
102
RTVSPropertyOp12
 70
     0
102
RTVSPropertyOp13
 70
     0
102
RTVSPropertyOp14
 70
     2
102
RTVSPropertyOp15
 70
     0
102
RTVSPropertyOp16
 70
     0
102
RTVSPropertyOp17
 70
     0
102
RTVSPropertyOp18
 70
     0
102
RTVSPropertyOp19
 70
     0
102
RTVSPropertyOp20
 70
     0
102
RTVSPropertyOp21
 70
     0
102
RTVSPropertyOp22
 70
     0
102
RTVSPropertyOp23
 70
     0
102
RTVSPropertyOp24
 70
     0
102
RTVSPropertyOp25
 70
     0
102
RTVSPropertyOp26
 70
     0
102
RTVSPropertyOp27
 70
     0
102
RTVSPropertyOp28
 70
     1
102
RTVSPropertyOp29
 70
     1
102
RTVSPropertyOp30
 70
     1
102
RTVSPropertyOp31
 70
     1
102
RTVSPropertyOp32
 70
     1
102
RTVSPropertyOp33
 70
     1
102
RTVSPropertyOp34
 70
     1
102
RTVSPropertyOp35
 70
     1
102
RTVSPropertyOp36
 70
     1
102
RTVSPropertyOp37
 70
     0
102
RTVSPropertyOp38
 70
     0
102
RTVSPropertyOp39
 70
     0
102
RTVSPropertyOp40
 70
     0
102
RTVSPropertyOp41
 70
     0
102
RTVSPropertyOp42
 70
     0
102
RTVSPropertyOp43
 70
     0
102
RTVSPropertyOp44
 70
     0
102
RTVSPropertyOp45
 70
     1
102
RTVSPropertyOp46
 70
     0
102
RTVSPropertyOp47
 70
     0
102
RTVSPropertyOp48
 70
     0
102
RTVSPropertyOp49
 70
     1
102
RTVSPropertyOp50
 70
     0
102
RTVSPropertyOp51
 70
     0
102
RTVSPropertyOp52
 70
     0
102
RTVSPropertyOp53
 70
     0
102
RTVSPropertyOp54
 70
     0
102
RTVSPropertyOp55
 70
     1
102
RTVSPropertyOp56
 70
     0
102
RTVSPropertyOp57
 70
     0
102
RTVSPropertyOp58
 70
     0
102
RTVSPropertyOp59
 70
     0
102
RTVSPropertyOp60
 70
     0
102
RTVSPropertyOp61
 70
     0
102
RTVSPropertyOp62
 70
     0
  0
XRECORD
  5
3EF
102
{ACAD_REACTORS
330
3EE
102
}
330
3EE
100
AcDbXrecord
280
     1
102
RTVSPost2010Prop28
280
     0
102
RTVSPost2010PropOp28
 70
     1
102
RTVSPost2010Prop29
280
     1
102
RTVSPost2010PropOp29
 70
     1
102
RTVSPost2010Prop30
280
     1
102
RTVSPost2010PropOp30
 70
     1
102
RTVSPost2010Prop31
280
     0
102
RTVSPost2010PropOp31
 70
     1
102
RTVSPost2010Prop32
280
     0
102
RTVSPost2010PropOp32
 70
     1
102
RTVSPost2010Prop33
280
     0
102
RTVSPost2010PropOp33
 70
     1
102
RTVSPost2010Prop34
280
     0
102
RTVSPost2010PropOp34
 70
     1
102
RTVSPost2010Prop35
280
     0
102
RTVSPost2010PropOp35
 70
     1
102
RTVSPost2010Prop36
280
     0
102
RTVSPost2010PropOp36
 70
     1
102
RTVSPost2010Prop37
 90
       50
102
RTVSPost2010PropOp37
 70
     1
102
RTVSPost2010Prop38
140
0.0
102
RTVSPost2010PropOp38
 70
     1
102
RTVSPost2010Prop39
140
1.0
102
RTVSPost2010PropOp39
 70
     1
102
RTVSPost2010Prop40
 90
        0
102
RTVSPost2010PropOp40
 70
     1
102
RTVSPost2010Prop41ColorIndex
 90
       18
102
RTVSPost2010Prop41ColorRGB
 90
        0
102
RTVSPost2010PropOp41
 70
     1
102
RTVSPost2010Prop42
 90
       50
102
RTVSPost2010PropOp42
 70
     1
102
RTVSPost2010Prop43
 90
        3
102
RTVSPost2010PropOp43
 70
     1
102
RTVSPost2010Prop44ColorIndex
 90
        5
102
RTVSPost2010Prop44ColorRGB
 90
      255
102
RTVSPost2010PropOp44
 70
     1
102
RTVSPost2010Prop45
280
     0
102
RTVSPost2010PropOp45
 70
     1
102
RTVSPost2010Prop46
 90
       50
102
RTVSPost2010PropOp46
 70
     1
102
RTVSPost2010Prop47
 90
       50
102
RTVSPost2010PropOp47
 70
     1
102
RTVSPost2010Prop48
 90
       50
102
RTVSPost2010PropOp48
 70
     1
102
RTVSPost2010Prop49
280
     0
102
RTVSPost2010PropOp49
 70
     1
102
RTVSPost2010Prop50
 90
       50
102
RTVSPost2010PropOp50
 70
     1
102
RTVSPost2010Prop51ColorIndex
 90
      256
102
RTVSPost2010Prop51ColorRGB
 90
-16777216
102
RTVSPost2010PropOp51
 70
     0
102
RTVSPost2010Prop52
140
1.0
102
RTVSPost2010PropOp52
 70
     0
102
RTVSPost2010Prop53
 90
        2
102
RTVSPost2010PropOp53
 70
     1
102
RTVSPost2010Prop54
  1
strokes_ogs.tif
102
RTVSPost2010PropOp54
 70
     1
102
RTVSPost2010Prop55
280
     0
102
RTVSPost2010PropOp55
 70
     1
102
RTVSPost2010Prop56
140
1.0
102
RTVSPost2010PropOp56
 70
     1
102
RTVSPost2010Prop57
140
1.0
102
RTVSPost2010PropOp57
 70
     1
102
RTVSPropertyOp0
 70
     1
102
RTVSPropertyOp1
 70
     1
102
RTVSPropertyOp2
 70
     1
102
RTVSPropertyOp3
 70
     1
102
RTVSPropertyOp4
 70
     1
102
RTVSPropertyOp5
 70
     1
102
RTVSPropertyOp6
 70
     1
102
RTVSPropertyOp7
 70
     1
102
RTVSPropertyOp8
 70
     1
102
RTVSPropertyOp9
 70
     1
102
RTVSPropertyOp10
 70
     1
102
RTVSPropertyOp11
 70
     1
102
RTVSPropertyOp12
 70
     1
102
RTVSPropertyOp13
 70
     1
102
RTVSPropertyOp14
 70
     1
102
RTVSPropertyOp15
 70
     1
102
RTVSPropertyOp16
 70
     1
102
RTVSPropertyOp17
 70
     1
102
RTVSPropertyOp18
 70
     1
102
RTVSPropertyOp19
 70
     1
102
RTVSPropertyOp20
 70
     1
102
RTVSPropertyOp21
 70
     1
102
RTVSPropertyOp22
 70
     1
102
RTVSPropertyOp23
 70
     1
102
RTVSPropertyOp24
 70
     1
102
RTVSPropertyOp25
 70
     1
102
RTVSPropertyOp26
 70
     1
102
RTVSPropertyOp27
 70
     1
102
RTVSPropertyOp28
 70
     1
102
RTVSPropertyOp29
 70
     1
102
RTVSPropertyOp30
 70
     1
102
RTVSPropertyOp31
 70
     1
102
RTVSPropertyOp32
 70
     1
102
RTVSPropertyOp33
 70
     1
102
RTVSPropertyOp34
 70
     1
102
RTVSPropertyOp35
 70
     1
102
RTVSPropertyOp36
 70
     1
102
RTVSPropertyOp37
 70
     1
102
RTVSPropertyOp38
 70
     1
102
RTVSPropertyOp39
 70
     1
102
RTVSPropertyOp40
 70
     1
102
RTVSPropertyOp41
 70
     1
102
RTVSPropertyOp42
 70
     1
102
RTVSPropertyOp43
 70
     1
102
RTVSPropertyOp44
 70
     1
102
RTVSPropertyOp45
 70
     1
102
RTVSPropertyOp46
 70
     1
102
RTVSPropertyOp47
 70
     1
102
RTVSPropertyOp48
 70
     1
102
RTVSPropertyOp49
 70
     1
102
RTVSPropertyOp50
 70
     1
102
RTVSPropertyOp51
 70
     0
102
RTVSPropertyOp52
 70
     0
102
RTVSPropertyOp53
 70
     1
102
RTVSPropertyOp54
 70
     1
102
RTVSPropertyOp55
 70
     1
102
RTVSPropertyOp56
 70
     1
102
RTVSPropertyOp57
 70
     1
102
RTVSPropertyOp58
 70
     1
102
RTVSPropertyOp59
 70
     1
102
RTVSPropertyOp60
 70
     1
102
RTVSPropertyOp61
 70
     1
102
RTVSPropertyOp62
 70
     1
  0
XRECORD
  5
405
102
{ACAD_REACTORS
330
404
102
}
330
404
100
AcDbXrecord
280
     1
102
RTVSPost2010Prop28
280
     0
102
RTVSPost2010PropOp28
 70
     1
102
RTVSPost2010Prop29
280
     1
102
RTVSPost2010PropOp29
 70
     1
102
RTVSPost2010Prop30
280
     1
102
RTVSPost2010PropOp30
 70
     1
102
RTVSPost2010Prop31
280
     0
102
RTVSPost2010PropOp31
 70
     1
102
RTVSPost2010Prop32
280
     0
102
RTVSPost2010PropOp32
 70
     1
102
RTVSPost2010Prop33
280
     0
102
RTVSPost2010PropOp33
 70
     1
102
RTVSPost2010Prop34
280
     0
102
RTVSPost2010PropOp34
 70
     1
102
RTVSPost2010Prop35
280
     0
102
RTVSPost2010PropOp35
 70
     1
102
RTVSPost2010Prop36
280
     0
102
RTVSPost2010PropOp36
 70
     1
102
RTVSPost2010Prop37
 90
       50
102
RTVSPost2010PropOp37
 70
     1
102
RTVSPost2010Prop38
140
0.0
102
RTVSPost2010PropOp38
 70
     1
102
RTVSPost2010Prop39
140
1.0
102
RTVSPost2010PropOp39
 70
     1
102
RTVSPost2010Prop40
 90
        0
102
RTVSPost2010PropOp40
 70
     1
102
RTVSPost2010Prop41ColorIndex
 90
       18
102
RTVSPost2010Prop41ColorRGB
 90
        0
102
RTVSPost2010PropOp41
 70
     1
102
RTVSPost2010Prop42
 90
       50
102
RTVSPost2010PropOp42
 70
     1
102
RTVSPost2010Prop43
 90
        3
102
RTVSPost2010PropOp43
 70
     1
102
RTVSPost2010Prop44ColorIndex
 90
        5
102
RTVSPost2010Prop44ColorRGB
 90
      255
102
RTVSPost2010PropOp44
 70
     1
102
RTVSPost2010Prop45
280
     0
102
RTVSPost2010PropOp45
 70
     1
102
RTVSPost2010Prop46
 90
       50
102
RTVSPost2010PropOp46
 70
     1
102
RTVSPost2010Prop47
 90
       50
102
RTVSPost2010PropOp47
 70
     1
102
RTVSPost2010Prop48
 90
       50
102
RTVSPost2010PropOp48
 70
     1
102
RTVSPost2010Prop49
280
     0
102
RTVSPost2010PropOp49
 70
     1
102
RTVSPost2010Prop50
 90
       50
102
RTVSPost2010PropOp50
 70
     1
102
RTVSPost2010Prop51ColorIndex
 90
      256
102
RTVSPost2010Prop51ColorRGB
 90
-16777216
102
RTVSPost2010PropOp51
 70
     0
102
RTVSPost2010Prop52
140
1.0
102
RTVSPost2010PropOp52
 70
     0
102
RTVSPost2010Prop53
 90
        2
102
RTVSPost2010PropOp53
 70
     1
102
RTVSPost2010Prop54
  1
strokes_ogs.tif
102
RTVSPost2010PropOp54
 70
     1
102
RTVSPost2010Prop55
280
     0
102
RTVSPost2010PropOp55
 70
     1
102
RTVSPost2010Prop56
140
1.0
102
RTVSPost2010PropOp56
 70
     1
102
RTVSPost2010Prop57
140
1.0
102
RTVSPost2010PropOp57
 70
     1
102
RTVSPropertyOp0
 70
     1
102
RTVSPropertyOp1
 70
     1
102
RTVSPropertyOp2
 70
     1
102
RTVSPropertyOp3
 70
     1
102
RTVSPropertyOp4
 70
     1
102
RTVSPropertyOp5
 70
     1
102
RTVSPropertyOp6
 70
     1
102
RTVSPropertyOp7
 70
     1
102
RTVSPropertyOp8
 70
     1
102
RTVSPropertyOp9
 70
     1
102
RTVSPropertyOp10
 70
     1
102
RTVSPropertyOp11
 70
     1
102
RTVSPropertyOp12
 70
     1
102
RTVSPropertyOp13
 70
     1
102
RTVSPropertyOp14
 70
     1
102
RTVSPropertyOp15
 70
     1
102
RTVSPropertyOp16
 70
     1
102
RTVSPropertyOp17
 70
     1
102
RTVSPropertyOp18
 70
     1
102
RTVSPropertyOp19
 70
     1
102
RTVSPropertyOp20
 70
     1
102
RTVSPropertyOp21
 70
     1
102
RTVSPropertyOp22
 70
     1
102
RTVSPropertyOp23
 70
     1
102
RTVSPropertyOp24
 70
     1
102
RTVSPropertyOp25
 70
     1
102
RTVSPropertyOp26
 70
     1
102
RTVSPropertyOp27
 70
     1
102
RTVSPropertyOp28
 70
     1
102
RTVSPropertyOp29
 70
     1
102
RTVSPropertyOp30
 70
     1
102
RTVSPropertyOp31
 70
     1
102
RTVSPropertyOp32
 70
     1
102
RTVSPropertyOp33
 70
     1
102
RTVSPropertyOp34
 70
     1
102
RTVSPropertyOp35
 70
     1
102
RTVSPropertyOp36
 70
     1
102
RTVSPropertyOp37
 70
     1
102
RTVSPropertyOp38
 70
     1
102
RTVSPropertyOp39
 70
     1
102
RTVSPropertyOp40
 70
     1
102
RTVSPropertyOp41
 70
     1
102
RTVSPropertyOp42
 70
     1
102
RTVSPropertyOp43
 70
     1
102
RTVSPropertyOp44
 70
     1
102
RTVSPropertyOp45
 70
     1
102
RTVSPropertyOp46
 70
     1
102
RTVSPropertyOp47
 70
     1
102
RTVSPropertyOp48
 70
     1
102
RTVSPropertyOp49
 70
     1
102
RTVSPropertyOp50
 70
     1
102
RTVSPropertyOp51
 70
     0
102
RTVSPropertyOp52
 70
     0
102
RTVSPropertyOp53
 70
     1
102
RTVSPropertyOp54
 70
     1
102
RTVSPropertyOp55
 70
     1
102
RTVSPropertyOp56
 70
     1
102
RTVSPropertyOp57
 70
     1
102
RTVSPropertyOp58
 70
     1
102
RTVSPropertyOp59
 70
     1
102
RTVSPropertyOp60
 70
     1
102
RTVSPropertyOp61
 70
     1
102
RTVSPropertyOp62
 70
     1
  0
XRECORD
  5
403
102
{ACAD_REACTORS
330
402
102
}
330
402
100
AcDbXrecord
280
     1
102
RTVSPost2010Prop28
280
     0
102
RTVSPost2010PropOp28
 70
     1
102
RTVSPost2010Prop29
280
     1
102
RTVSPost2010PropOp29
 70
     1
102
RTVSPost2010Prop30
280
     1
102
RTVSPost2010PropOp30
 70
     1
102
RTVSPost2010Prop31
280
     0
102
RTVSPost2010PropOp31
 70
     1
102
RTVSPost2010Prop32
280
     0
102
RTVSPost2010PropOp32
 70
     1
102
RTVSPost2010Prop33
280
     0
102
RTVSPost2010PropOp33
 70
     1
102
RTVSPost2010Prop34
280
     0
102
RTVSPost2010PropOp34
 70
     1
102
RTVSPost2010Prop35
280
     0
102
RTVSPost2010PropOp35
 70
     1
102
RTVSPost2010Prop36
280
     0
102
RTVSPost2010PropOp36
 70
     1
102
RTVSPost2010Prop37
 90
       50
102
RTVSPost2010PropOp37
 70
     1
102
RTVSPost2010Prop38
140
0.0
102
RTVSPost2010PropOp38
 70
     1
102
RTVSPost2010Prop39
140
1.0
102
RTVSPost2010PropOp39
 70
     1
102
RTVSPost2010Prop40
 90
        0
102
RTVSPost2010PropOp40
 70
     1
102
RTVSPost2010Prop41ColorIndex
 90
       18
102
RTVSPost2010Prop41ColorRGB
 90
        0
102
RTVSPost2010PropOp41
 70
     1
102
RTVSPost2010Prop42
 90
       50
102
RTVSPost2010PropOp42
 70
     1
102
RTVSPost2010Prop43
 90
        3
102
RTVSPost2010PropOp43
 70
     1
102
RTVSPost2010Prop44ColorIndex
 90
        5
102
RTVSPost2010Prop44ColorRGB
 90
      255
102
RTVSPost2010PropOp44
 70
     1
102
RTVSPost2010Prop45
280
     0
102
RTVSPost2010PropOp45
 70
     1
102
RTVSPost2010Prop46
 90
       50
102
RTVSPost2010PropOp46
 70
     1
102
RTVSPost2010Prop47
 90
       50
102
RTVSPost2010PropOp47
 70
     1
102
RTVSPost2010Prop48
 90
       50
102
RTVSPost2010PropOp48
 70
     1
102
RTVSPost2010Prop49
280
     0
102
RTVSPost2010PropOp49
 70
     1
102
RTVSPost2010Prop50
 90
       50
102
RTVSPost2010PropOp50
 70
     1
102
RTVSPost2010Prop51ColorIndex
 90
      256
102
RTVSPost2010Prop51ColorRGB
 90
-16777216
102
RTVSPost2010PropOp51
 70
     0
102
RTVSPost2010Prop52
140
1.0
102
RTVSPost2010PropOp52
 70
     0
102
RTVSPost2010Prop53
 90
        2
102
RTVSPost2010PropOp53
 70
     1
102
RTVSPost2010Prop54
  1
strokes_ogs.tif
102
RTVSPost2010PropOp54
 70
     1
102
RTVSPost2010Prop55
280
     0
102
RTVSPost2010PropOp55
 70
     1
102
RTVSPost2010Prop56
140
1.0
102
RTVSPost2010PropOp56
 70
     1
102
RTVSPost2010Prop57
140
1.0
102
RTVSPost2010PropOp57
 70
     1
102
RTVSPropertyOp0
 70
     1
102
RTVSPropertyOp1
 70
     1
102
RTVSPropertyOp2
 70
     1
102
RTVSPropertyOp3
 70
     1
102
RTVSPropertyOp4
 70
     1
102
RTVSPropertyOp5
 70
     1
102
RTVSPropertyOp6
 70
     1
102
RTVSPropertyOp7
 70
     1
102
RTVSPropertyOp8
 70
     1
102
RTVSPropertyOp9
 70
     1
102
RTVSPropertyOp10
 70
     1
102
RTVSPropertyOp11
 70
     1
102
RTVSPropertyOp12
 70
     1
102
RTVSPropertyOp13
 70
     1
102
RTVSPropertyOp14
 70
     1
102
RTVSPropertyOp15
 70
     1
102
RTVSPropertyOp16
 70
     1
102
RTVSPropertyOp17
 70
     1
102
RTVSPropertyOp18
 70
     1
102
RTVSPropertyOp19
 70
     1
102
RTVSPropertyOp20
 70
     1
102
RTVSPropertyOp21
 70
     1
102
RTVSPropertyOp22
 70
     1
102
RTVSPropertyOp23
 70
     1
102
RTVSPropertyOp24
 70
     1
102
RTVSPropertyOp25
 70
     1
102
RTVSPropertyOp26
 70
     1
102
RTVSPropertyOp27
 70
     1
102
RTVSPropertyOp28
 70
     1
102
RTVSPropertyOp29
 70
     1
102
RTVSPropertyOp30
 70
     1
102
RTVSPropertyOp31
 70
     1
102
RTVSPropertyOp32
 70
     1
102
RTVSPropertyOp33
 70
     1
102
RTVSPropertyOp34
 70
     1
102
RTVSPropertyOp35
 70
     1
102
RTVSPropertyOp36
 70
     1
102
RTVSPropertyOp37
 70
     1
102
RTVSPropertyOp38
 70
     1
102
RTVSPropertyOp39
 70
     1
102
RTVSPropertyOp40
 70
     1
102
RTVSPropertyOp41
 70
     1
102
RTVSPropertyOp42
 70
     1
102
RTVSPropertyOp43
 70
     1
102
RTVSPropertyOp44
 70
     1
102
RTVSPropertyOp45
 70
     1
102
RTVSPropertyOp46
 70
     1
102
RTVSPropertyOp47
 70
     1
102
RTVSPropertyOp48
 70
     1
102
RTVSPropertyOp49
 70
     1
102
RTVSPropertyOp50
 70
     1
102
RTVSPropertyOp51
 70
     0
102
RTVSPropertyOp52
 70
     0
102
RTVSPropertyOp53
 70
     1
102
RTVSPropertyOp54
 70
     1
102
RTVSPropertyOp55
 70
     1
102
RTVSPropertyOp56
 70
     1
102
RTVSPropertyOp57
 70
     1
102
RTVSPropertyOp58
 70
     1
102
RTVSPropertyOp59
 70
     1
102
RTVSPropertyOp60
 70
     1
102
RTVSPropertyOp61
 70
     1
102
RTVSPropertyOp62
 70
     1
  0
XRECORD
  5
3FD
102
{ACAD_REACTORS
330
3FC
102
}
330
3FC
100
AcDbXrecord
280
     1
102
RTVSPost2010Prop28
280
     0
102
RTVSPost2010PropOp28
 70
     1
102
RTVSPost2010Prop29
280
     1
102
RTVSPost2010PropOp29
 70
     1
102
RTVSPost2010Prop30
280
     1
102
RTVSPost2010PropOp30
 70
     1
102
RTVSPost2010Prop31
280
     0
102
RTVSPost2010PropOp31
 70
     1
102
RTVSPost2010Prop32
280
     0
102
RTVSPost2010PropOp32
 70
     1
102
RTVSPost2010Prop33
280
     0
102
RTVSPost2010PropOp33
 70
     1
102
RTVSPost2010Prop34
280
     0
102
RTVSPost2010PropOp34
 70
     1
102
RTVSPost2010Prop35
280
     0
102
RTVSPost2010PropOp35
 70
     1
102
RTVSPost2010Prop36
280
     0
102
RTVSPost2010PropOp36
 70
     1
102
RTVSPost2010Prop37
 90
       50
102
RTVSPost2010PropOp37
 70
     1
102
RTVSPost2010Prop38
140
0.0
102
RTVSPost2010PropOp38
 70
     1
102
RTVSPost2010Prop39
140
1.0
102
RTVSPost2010PropOp39
 70
     1
102
RTVSPost2010Prop40
 90
        0
102
RTVSPost2010PropOp40
 70
     1
102
RTVSPost2010Prop41ColorIndex
 90
       18
102
RTVSPost2010Prop41ColorRGB
 90
        0
102
RTVSPost2010PropOp41
 70
     1
102
RTVSPost2010Prop42
 90
       50
102
RTVSPost2010PropOp42
 70
     1
102
RTVSPost2010Prop43
 90
        3
102
RTVSPost2010PropOp43
 70
     1
102
RTVSPost2010Prop44ColorIndex
 90
        5
102
RTVSPost2010Prop44ColorRGB
 90
      255
102
RTVSPost2010PropOp44
 70
     1
102
RTVSPost2010Prop45
280
     0
102
RTVSPost2010PropOp45
 70
     1
102
RTVSPost2010Prop46
 90
       50
102
RTVSPost2010PropOp46
 70
     1
102
RTVSPost2010Prop47
 90
       50
102
RTVSPost2010PropOp47
 70
     1
102
RTVSPost2010Prop48
 90
       50
102
RTVSPost2010PropOp48
 70
     1
102
RTVSPost2010Prop49
280
     0
102
RTVSPost2010PropOp49
 70
     1
102
RTVSPost2010Prop50
 90
       50
102
RTVSPost2010PropOp50
 70
     1
102
RTVSPost2010Prop51ColorIndex
 90
      256
102
RTVSPost2010Prop51ColorRGB
 90
-16777216
102
RTVSPost2010PropOp51
 70
     0
102
RTVSPost2010Prop52
140
1.0
102
RTVSPost2010PropOp52
 70
     0
102
RTVSPost2010Prop53
 90
        2
102
RTVSPost2010PropOp53
 70
     1
102
RTVSPost2010Prop54
  1
strokes_ogs.tif
102
RTVSPost2010PropOp54
 70
     1
102
RTVSPost2010Prop55
280
     0
102
RTVSPost2010PropOp55
 70
     1
102
RTVSPost2010Prop56
140
1.0
102
RTVSPost2010PropOp56
 70
     1
102
RTVSPost2010Prop57
140
1.0
102
RTVSPost2010PropOp57
 70
     1
102
RTVSPropertyOp0
 70
     1
102
RTVSPropertyOp1
 70
     1
102
RTVSPropertyOp2
 70
     1
102
RTVSPropertyOp3
 70
     1
102
RTVSPropertyOp4
 70
     1
102
RTVSPropertyOp5
 70
     1
102
RTVSPropertyOp6
 70
     1
102
RTVSPropertyOp7
 70
     1
102
RTVSPropertyOp8
 70
     1
102
RTVSPropertyOp9
 70
     1
102
RTVSPropertyOp10
 70
     1
102
RTVSPropertyOp11
 70
     1
102
RTVSPropertyOp12
 70
     1
102
RTVSPropertyOp13
 70
     1
102
RTVSPropertyOp14
 70
     1
102
RTVSPropertyOp15
 70
     1
102
RTVSPropertyOp16
 70
     1
102
RTVSPropertyOp17
 70
     1
102
RTVSPropertyOp18
 70
     1
102
RTVSPropertyOp19
 70
     1
102
RTVSPropertyOp20
 70
     1
102
RTVSPropertyOp21
 70
     1
102
RTVSPropertyOp22
 70
     1
102
RTVSPropertyOp23
 70
     1
102
RTVSPropertyOp24
 70
     1
102
RTVSPropertyOp25
 70
     1
102
RTVSPropertyOp26
 70
     1
102
RTVSPropertyOp27
 70
     1
102
RTVSPropertyOp28
 70
     1
102
RTVSPropertyOp29
 70
     1
102
RTVSPropertyOp30
 70
     1
102
RTVSPropertyOp31
 70
     1
102
RTVSPropertyOp32
 70
     1
102
RTVSPropertyOp33
 70
     1
102
RTVSPropertyOp34
 70
     1
102
RTVSPropertyOp35
 70
     1
102
RTVSPropertyOp36
 70
     1
102
RTVSPropertyOp37
 70
     1
102
RTVSPropertyOp38
 70
     1
102
RTVSPropertyOp39
 70
     1
102
RTVSPropertyOp40
 70
     1
102
RTVSPropertyOp41
 70
     1
102
RTVSPropertyOp42
 70
     1
102
RTVSPropertyOp43
 70
     1
102
RTVSPropertyOp44
 70
     1
102
RTVSPropertyOp45
 70
     1
102
RTVSPropertyOp46
 70
     1
102
RTVSPropertyOp47
 70
     1
102
RTVSPropertyOp48
 70
     1
102
RTVSPropertyOp49
 70
     1
102
RTVSPropertyOp50
 70
     1
102
RTVSPropertyOp51
 70
     0
102
RTVSPropertyOp52
 70
     0
102
RTVSPropertyOp53
 70
     1
102
RTVSPropertyOp54
 70
     1
102
RTVSPropertyOp55
 70
     1
102
RTVSPropertyOp56
 70
     1
102
RTVSPropertyOp57
 70
     1
102
RTVSPropertyOp58
 70
     1
102
RTVSPropertyOp59
 70
     1
102
RTVSPropertyOp60
 70
     1
102
RTVSPropertyOp61
 70
     1
102
RTVSPropertyOp62
 70
     1
  0
XRECORD
  5
3FF
102
{ACAD_REACTORS
330
3FE
102
}
330
3FE
100
AcDbXrecord
280
     1
102
RTVSPost2010Prop28
280
     0
102
RTVSPost2010PropOp28
 70
     1
102
RTVSPost2010Prop29
280
     1
102
RTVSPost2010PropOp29
 70
     1
102
RTVSPost2010Prop30
280
     1
102
RTVSPost2010PropOp30
 70
     1
102
RTVSPost2010Prop31
280
     0
102
RTVSPost2010PropOp31
 70
     1
102
RTVSPost2010Prop32
280
     0
102
RTVSPost2010PropOp32
 70
     1
102
RTVSPost2010Prop33
280
     0
102
RTVSPost2010PropOp33
 70
     1
102
RTVSPost2010Prop34
280
     0
102
RTVSPost2010PropOp34
 70
     1
102
RTVSPost2010Prop35
280
     0
102
RTVSPost2010PropOp35
 70
     1
102
RTVSPost2010Prop36
280
     0
102
RTVSPost2010PropOp36
 70
     1
102
RTVSPost2010Prop37
 90
       50
102
RTVSPost2010PropOp37
 70
     1
102
RTVSPost2010Prop38
140
0.0
102
RTVSPost2010PropOp38
 70
     1
102
RTVSPost2010Prop39
140
1.0
102
RTVSPost2010PropOp39
 70
     1
102
RTVSPost2010Prop40
 90
        0
102
RTVSPost2010PropOp40
 70
     1
102
RTVSPost2010Prop41ColorIndex
 90
       18
102
RTVSPost2010Prop41ColorRGB
 90
        0
102
RTVSPost2010PropOp41
 70
     1
102
RTVSPost2010Prop42
 90
       50
102
RTVSPost2010PropOp42
 70
     1
102
RTVSPost2010Prop43
 90
        3
102
RTVSPost2010PropOp43
 70
     1
102
RTVSPost2010Prop44ColorIndex
 90
        5
102
RTVSPost2010Prop44ColorRGB
 90
      255
102
RTVSPost2010PropOp44
 70
     1
102
RTVSPost2010Prop45
280
     0
102
RTVSPost2010PropOp45
 70
     1
102
RTVSPost2010Prop46
 90
       50
102
RTVSPost2010PropOp46
 70
     1
102
RTVSPost2010Prop47
 90
       50
102
RTVSPost2010PropOp47
 70
     1
102
RTVSPost2010Prop48
 90
       50
102
RTVSPost2010PropOp48
 70
     1
102
RTVSPost2010Prop49
280
     0
102
RTVSPost2010PropOp49
 70
     1
102
RTVSPost2010Prop50
 90
       50
102
RTVSPost2010PropOp50
 70
     1
102
RTVSPost2010Prop51ColorIndex
 90
      256
102
RTVSPost2010Prop51ColorRGB
 90
-16777216
102
RTVSPost2010PropOp51
 70
     0
102
RTVSPost2010Prop52
140
1.0
102
RTVSPost2010PropOp52
 70
     0
102
RTVSPost2010Prop53
 90
        2
102
RTVSPost2010PropOp53
 70
     1
102
RTVSPost2010Prop54
  1
strokes_ogs.tif
102
RTVSPost2010PropOp54
 70
     1
102
RTVSPost2010Prop55
280
     0
102
RTVSPost2010PropOp55
 70
     1
102
RTVSPost2010Prop56
140
1.0
102
RTVSPost2010PropOp56
 70
     1
102
RTVSPost2010Prop57
140
1.0
102
RTVSPost2010PropOp57
 70
     1
102
RTVSPropertyOp0
 70
     1
102
RTVSPropertyOp1
 70
     1
102
RTVSPropertyOp2
 70
     1
102
RTVSPropertyOp3
 70
     1
102
RTVSPropertyOp4
 70
     1
102
RTVSPropertyOp5
 70
     1
102
RTVSPropertyOp6
 70
     1
102
RTVSPropertyOp7
 70
     1
102
RTVSPropertyOp8
 70
     1
102
RTVSPropertyOp9
 70
     1
102
RTVSPropertyOp10
 70
     1
102
RTVSPropertyOp11
 70
     1
102
RTVSPropertyOp12
 70
     1
102
RTVSPropertyOp13
 70
     1
102
RTVSPropertyOp14
 70
     1
102
RTVSPropertyOp15
 70
     1
102
RTVSPropertyOp16
 70
     1
102
RTVSPropertyOp17
 70
     1
102
RTVSPropertyOp18
 70
     1
102
RTVSPropertyOp19
 70
     1
102
RTVSPropertyOp20
 70
     1
102
RTVSPropertyOp21
 70
     1
102
RTVSPropertyOp22
 70
     1
102
RTVSPropertyOp23
 70
     1
102
RTVSPropertyOp24
 70
     1
102
RTVSPropertyOp25
 70
     1
102
RTVSPropertyOp26
 70
     1
102
RTVSPropertyOp27
 70
     1
102
RTVSPropertyOp28
 70
     1
102
RTVSPropertyOp29
 70
     1
102
RTVSPropertyOp30
 70
     1
102
RTVSPropertyOp31
 70
     1
102
RTVSPropertyOp32
 70
     1
102
RTVSPropertyOp33
 70
     1
102
RTVSPropertyOp34
 70
     1
102
RTVSPropertyOp35
 70
     1
102
RTVSPropertyOp36
 70
     1
102
RTVSPropertyOp37
 70
     1
102
RTVSPropertyOp38
 70
     1
102
RTVSPropertyOp39
 70
     1
102
RTVSPropertyOp40
 70
     1
102
RTVSPropertyOp41
 70
     1
102
RTVSPropertyOp42
 70
     1
102
RTVSPropertyOp43
 70
     1
102
RTVSPropertyOp44
 70
     1
102
RTVSPropertyOp45
 70
     1
102
RTVSPropertyOp46
 70
     1
102
RTVSPropertyOp47
 70
     1
102
RTVSPropertyOp48
 70
     1
102
RTVSPropertyOp49
 70
     1
102
RTVSPropertyOp50
 70
     1
102
RTVSPropertyOp51
 70
     0
102
RTVSPropertyOp52
 70
     0
102
RTVSPropertyOp53
 70
     1
102
RTVSPropertyOp54
 70
     1
102
RTVSPropertyOp55
 70
     1
102
RTVSPropertyOp56
 70
     1
102
RTVSPropertyOp57
 70
     1
102
RTVSPropertyOp58
 70
     1
102
RTVSPropertyOp59
 70
     1
102
RTVSPropertyOp60
 70
     1
102
RTVSPropertyOp61
 70
     1
102
RTVSPropertyOp62
 70
     1
  0
XRECORD
  5
3F5
102
{ACAD_REACTORS
330
3F4
102
}
330
3F4
100
AcDbXrecord
280
     1
102
RTVSPost2010Prop28
280
     0
102
RTVSPost2010PropOp28
 70
     1
102
RTVSPost2010Prop29
280
     1
102
RTVSPost2010PropOp29
 70
     1
102
RTVSPost2010Prop30
280
     1
102
RTVSPost2010PropOp30
 70
     1
102
RTVSPost2010Prop31
280
     0
102
RTVSPost2010PropOp31
 70
     1
102
RTVSPost2010Prop32
280
     0
102
RTVSPost2010PropOp32
 70
     1
102
RTVSPost2010Prop33
280
     0
102
RTVSPost2010PropOp33
 70
     1
102
RTVSPost2010Prop34
280
     0
102
RTVSPost2010PropOp34
 70
     1
102
RTVSPost2010Prop35
280
     0
102
RTVSPost2010PropOp35
 70
     1
102
RTVSPost2010Prop36
280
     0
102
RTVSPost2010PropOp36
 70
     1
102
RTVSPost2010Prop37
 90
       50
102
RTVSPost2010PropOp37
 70
     1
102
RTVSPost2010Prop38
140
0.0
102
RTVSPost2010PropOp38
 70
     1
102
RTVSPost2010Prop39
140
1.0
102
RTVSPost2010PropOp39
 70
     1
102
RTVSPost2010Prop40
 90
        0
102
RTVSPost2010PropOp40
 70
     1
102
RTVSPost2010Prop41ColorIndex
 90
       18
102
RTVSPost2010Prop41ColorRGB
 90
        0
102
RTVSPost2010PropOp41
 70
     1
102
RTVSPost2010Prop42
 90
       50
102
RTVSPost2010PropOp42
 70
     1
102
RTVSPost2010Prop43
 90
        3
102
RTVSPost2010PropOp43
 70
     1
102
RTVSPost2010Prop44ColorIndex
 90
        5
102
RTVSPost2010Prop44ColorRGB
 90
      255
102
RTVSPost2010PropOp44
 70
     1
102
RTVSPost2010Prop45
280
     0
102
RTVSPost2010PropOp45
 70
     1
102
RTVSPost2010Prop46
 90
       50
102
RTVSPost2010PropOp46
 70
     1
102
RTVSPost2010Prop47
 90
       50
102
RTVSPost2010PropOp47
 70
     1
102
RTVSPost2010Prop48
 90
       50
102
RTVSPost2010PropOp48
 70
     1
102
RTVSPost2010Prop49
280
     0
102
RTVSPost2010PropOp49
 70
     1
102
RTVSPost2010Prop50
 90
       50
102
RTVSPost2010PropOp50
 70
     1
102
RTVSPost2010Prop51ColorIndex
 90
      256
102
RTVSPost2010Prop51ColorRGB
 90
-16777216
102
RTVSPost2010PropOp51
 70
     0
102
RTVSPost2010Prop52
140
1.0
102
RTVSPost2010PropOp52
 70
     0
102
RTVSPost2010Prop53
 90
        2
102
RTVSPost2010PropOp53
 70
     1
102
RTVSPost2010Prop54
  1
strokes_ogs.tif
102
RTVSPost2010PropOp54
 70
     1
102
RTVSPost2010Prop55
280
     0
102
RTVSPost2010PropOp55
 70
     1
102
RTVSPost2010Prop56
140
1.0
102
RTVSPost2010PropOp56
 70
     1
102
RTVSPost2010Prop57
140
1.0
102
RTVSPost2010PropOp57
 70
     1
102
RTVSPropertyOp0
 70
     1
102
RTVSPropertyOp1
 70
     1
102
RTVSPropertyOp2
 70
     1
102
RTVSPropertyOp3
 70
     1
102
RTVSPropertyOp4
 70
     1
102
RTVSPropertyOp5
 70
     1
102
RTVSPropertyOp6
 70
     1
102
RTVSPropertyOp7
 70
     1
102
RTVSPropertyOp8
 70
     1
102
RTVSPropertyOp9
 70
     1
102
RTVSPropertyOp10
 70
     1
102
RTVSPropertyOp11
 70
     1
102
RTVSPropertyOp12
 70
     1
102
RTVSPropertyOp13
 70
     1
102
RTVSPropertyOp14
 70
     1
102
RTVSPropertyOp15
 70
     1
102
RTVSPropertyOp16
 70
     1
102
RTVSPropertyOp17
 70
     1
102
RTVSPropertyOp18
 70
     1
102
RTVSPropertyOp19
 70
     1
102
RTVSPropertyOp20
 70
     1
102
RTVSPropertyOp21
 70
     1
102
RTVSPropertyOp22
 70
     1
102
RTVSPropertyOp23
 70
     1
102
RTVSPropertyOp24
 70
     1
102
RTVSPropertyOp25
 70
     1
102
RTVSPropertyOp26
 70
     1
102
RTVSPropertyOp27
 70
     1
102
RTVSPropertyOp28
 70
     1
102
RTVSPropertyOp29
 70
     1
102
RTVSPropertyOp30
 70
     1
102
RTVSPropertyOp31
 70
     1
102
RTVSPropertyOp32
 70
     1
102
RTVSPropertyOp33
 70
     1
102
RTVSPropertyOp34
 70
     1
102
RTVSPropertyOp35
 70
     1
102
RTVSPropertyOp36
 70
     1
102
RTVSPropertyOp37
 70
     1
102
RTVSPropertyOp38
 70
     1
102
RTVSPropertyOp39
 70
     1
102
RTVSPropertyOp40
 70
     1
102
RTVSPropertyOp41
 70
     1
102
RTVSPropertyOp42
 70
     1
102
RTVSPropertyOp43
 70
     1
102
RTVSPropertyOp44
 70
     1
102
RTVSPropertyOp45
 70
     1
102
RTVSPropertyOp46
 70
     1
102
RTVSPropertyOp47
 70
     1
102
RTVSPropertyOp48
 70
     1
102
RTVSPropertyOp49
 70
     1
102
RTVSPropertyOp50
 70
     1
102
RTVSPropertyOp51
 70
     0
102
RTVSPropertyOp52
 70
     0
102
RTVSPropertyOp53
 70
     1
102
RTVSPropertyOp54
 70
     1
102
RTVSPropertyOp55
 70
     1
102
RTVSPropertyOp56
 70
     1
102
RTVSPropertyOp57
 70
     1
102
RTVSPropertyOp58
 70
     1
102
RTVSPropertyOp59
 70
     1
102
RTVSPropertyOp60
 70
     1
102
RTVSPropertyOp61
 70
     1
102
RTVSPropertyOp62
 70
     1
  0
XRECORD
  5
3E9
102
{ACAD_REACTORS
330
3E8
102
}
330
3E8
100
AcDbXrecord
280
     1
102
RTVSPost2010Prop28
280
     0
102
RTVSPost2010PropOp28
 70
     1
102
RTVSPost2010Prop29
280
     1
102
RTVSPost2010PropOp29
 70
     1
102
RTVSPost2010Prop30
280
     1
102
RTVSPost2010PropOp30
 70
     1
102
RTVSPost2010Prop31
280
     0
102
RTVSPost2010PropOp31
 70
     1
102
RTVSPost2010Prop32
280
     0
102
RTVSPost2010PropOp32
 70
     1
102
RTVSPost2010Prop33
280
     0
102
RTVSPost2010PropOp33
 70
     1
102
RTVSPost2010Prop34
280
     0
102
RTVSPost2010PropOp34
 70
     1
102
RTVSPost2010Prop35
280
     0
102
RTVSPost2010PropOp35
 70
     1
102
RTVSPost2010Prop36
280
     0
102
RTVSPost2010PropOp36
 70
     1
102
RTVSPost2010Prop37
 90
       50
102
RTVSPost2010PropOp37
 70
     1
102
RTVSPost2010Prop38
140
0.0
102
RTVSPost2010PropOp38
 70
     1
102
RTVSPost2010Prop39
140
1.0
102
RTVSPost2010PropOp39
 70
     1
102
RTVSPost2010Prop40
 90
        0
102
RTVSPost2010PropOp40
 70
     1
102
RTVSPost2010Prop41ColorIndex
 90
       18
102
RTVSPost2010Prop41ColorRGB
 90
        0
102
RTVSPost2010PropOp41
 70
     1
102
RTVSPost2010Prop42
 90
       50
102
RTVSPost2010PropOp42
 70
     1
102
RTVSPost2010Prop43
 90
        3
102
RTVSPost2010PropOp43
 70
     1
102
RTVSPost2010Prop44ColorIndex
 90
        5
102
RTVSPost2010Prop44ColorRGB
 90
      255
102
RTVSPost2010PropOp44
 70
     1
102
RTVSPost2010Prop45
280
     0
102
RTVSPost2010PropOp45
 70
     1
102
RTVSPost2010Prop46
 90
       50
102
RTVSPost2010PropOp46
 70
     1
102
RTVSPost2010Prop47
 90
       50
102
RTVSPost2010PropOp47
 70
     1
102
RTVSPost2010Prop48
 90
       50
102
RTVSPost2010PropOp48
 70
     1
102
RTVSPost2010Prop49
280
     0
102
RTVSPost2010PropOp49
 70
     1
102
RTVSPost2010Prop50
 90
       50
102
RTVSPost2010PropOp50
 70
     1
102
RTVSPost2010Prop51ColorIndex
 90
      256
102
RTVSPost2010Prop51ColorRGB
 90
-16777216
102
RTVSPost2010PropOp51
 70
     0
102
RTVSPost2010Prop52
140
1.0
102
RTVSPost2010PropOp52
 70
     0
102
RTVSPost2010Prop53
 90
        2
102
RTVSPost2010PropOp53
 70
     1
102
RTVSPost2010Prop54
  1
strokes_ogs.tif
102
RTVSPost2010PropOp54
 70
     1
102
RTVSPost2010Prop55
280
     0
102
RTVSPost2010PropOp55
 70
     1
102
RTVSPost2010Prop56
140
1.0
102
RTVSPost2010PropOp56
 70
     1
102
RTVSPost2010Prop57
140
1.0
102
RTVSPost2010PropOp57
 70
     1
102
RTVSPropertyOp0
 70
     1
102
RTVSPropertyOp1
 70
     1
102
RTVSPropertyOp2
 70
     1
102
RTVSPropertyOp3
 70
     1
102
RTVSPropertyOp4
 70
     1
102
RTVSPropertyOp5
 70
     1
102
RTVSPropertyOp6
 70
     1
102
RTVSPropertyOp7
 70
     1
102
RTVSPropertyOp8
 70
     1
102
RTVSPropertyOp9
 70
     1
102
RTVSPropertyOp10
 70
     1
102
RTVSPropertyOp11
 70
     1
102
RTVSPropertyOp12
 70
     1
102
RTVSPropertyOp13
 70
     1
102
RTVSPropertyOp14
 70
     1
102
RTVSPropertyOp15
 70
     1
102
RTVSPropertyOp16
 70
     1
102
RTVSPropertyOp17
 70
     1
102
RTVSPropertyOp18
 70
     1
102
RTVSPropertyOp19
 70
     1
102
RTVSPropertyOp20
 70
     1
102
RTVSPropertyOp21
 70
     1
102
RTVSPropertyOp22
 70
     1
102
RTVSPropertyOp23
 70
     1
102
RTVSPropertyOp24
 70
     1
102
RTVSPropertyOp25
 70
     1
102
RTVSPropertyOp26
 70
     1
102
RTVSPropertyOp27
 70
     1
102
RTVSPropertyOp28
 70
     1
102
RTVSPropertyOp29
 70
     1
102
RTVSPropertyOp30
 70
     1
102
RTVSPropertyOp31
 70
     1
102
RTVSPropertyOp32
 70
     1
102
RTVSPropertyOp33
 70
     1
102
RTVSPropertyOp34
 70
     1
102
RTVSPropertyOp35
 70
     1
102
RTVSPropertyOp36
 70
     1
102
RTVSPropertyOp37
 70
     1
102
RTVSPropertyOp38
 70
     1
102
RTVSPropertyOp39
 70
     1
102
RTVSPropertyOp40
 70
     1
102
RTVSPropertyOp41
 70
     1
102
RTVSPropertyOp42
 70
     1
102
RTVSPropertyOp43
 70
     1
102
RTVSPropertyOp44
 70
     1
102
RTVSPropertyOp45
 70
     1
102
RTVSPropertyOp46
 70
     1
102
RTVSPropertyOp47
 70
     1
102
RTVSPropertyOp48
 70
     1
102
RTVSPropertyOp49
 70
     1
102
RTVSPropertyOp50
 70
     1
102
RTVSPropertyOp51
 70
     0
102
RTVSPropertyOp52
 70
     0
102
RTVSPropertyOp53
 70
     1
102
RTVSPropertyOp54
 70
     1
102
RTVSPropertyOp55
 70
     1
102
RTVSPropertyOp56
 70
     1
102
RTVSPropertyOp57
 70
     1
102
RTVSPropertyOp58
 70
     1
102
RTVSPropertyOp59
 70
     1
102
RTVSPropertyOp60
 70
     1
102
RTVSPropertyOp61
 70
     1
102
RTVSPropertyOp62
 70
     1
  0
XRECORD
  5
401
102
{ACAD_REACTORS
330
400
102
}
330
400
100
AcDbXrecord
280
     1
102
RTVSPost2010Prop28
280
     0
102
RTVSPost2010PropOp28
 70
     1
102
RTVSPost2010Prop29
280
     1
102
RTVSPost2010PropOp29
 70
     1
102
RTVSPost2010Prop30
280
     1
102
RTVSPost2010PropOp30
 70
     1
102
RTVSPost2010Prop31
280
     0
102
RTVSPost2010PropOp31
 70
     1
102
RTVSPost2010Prop32
280
     0
102
RTVSPost2010PropOp32
 70
     1
102
RTVSPost2010Prop33
280
     0
102
RTVSPost2010PropOp33
 70
     1
102
RTVSPost2010Prop34
280
     0
102
RTVSPost2010PropOp34
 70
     1
102
RTVSPost2010Prop35
280
     0
102
RTVSPost2010PropOp35
 70
     1
102
RTVSPost2010Prop36
280
     0
102
RTVSPost2010PropOp36
 70
     1
102
RTVSPost2010Prop37
 90
       50
102
RTVSPost2010PropOp37
 70
     1
102
RTVSPost2010Prop38
140
0.0
102
RTVSPost2010PropOp38
 70
     1
102
RTVSPost2010Prop39
140
1.0
102
RTVSPost2010PropOp39
 70
     1
102
RTVSPost2010Prop40
 90
        0
102
RTVSPost2010PropOp40
 70
     1
102
RTVSPost2010Prop41ColorIndex
 90
       18
102
RTVSPost2010Prop41ColorRGB
 90
        0
102
RTVSPost2010PropOp41
 70
     1
102
RTVSPost2010Prop42
 90
       50
102
RTVSPost2010PropOp42
 70
     1
102
RTVSPost2010Prop43
 90
        3
102
RTVSPost2010PropOp43
 70
     1
102
RTVSPost2010Prop44ColorIndex
 90
        5
102
RTVSPost2010Prop44ColorRGB
 90
      255
102
RTVSPost2010PropOp44
 70
     1
102
RTVSPost2010Prop45
280
     0
102
RTVSPost2010PropOp45
 70
     1
102
RTVSPost2010Prop46
 90
       50
102
RTVSPost2010PropOp46
 70
     1
102
RTVSPost2010Prop47
 90
       50
102
RTVSPost2010PropOp47
 70
     1
102
RTVSPost2010Prop48
 90
       50
102
RTVSPost2010PropOp48
 70
     1
102
RTVSPost2010Prop49
280
     0
102
RTVSPost2010PropOp49
 70
     1
102
RTVSPost2010Prop50
 90
       50
102
RTVSPost2010PropOp50
 70
     1
102
RTVSPost2010Prop51ColorIndex
 90
      256
102
RTVSPost2010Prop51ColorRGB
 90
-16777216
102
RTVSPost2010PropOp51
 70
     0
102
RTVSPost2010Prop52
140
1.0
102
RTVSPost2010PropOp52
 70
     0
102
RTVSPost2010Prop53
 90
        2
102
RTVSPost2010PropOp53
 70
     1
102
RTVSPost2010Prop54
  1
strokes_ogs.tif
102
RTVSPost2010PropOp54
 70
     1
102
RTVSPost2010Prop55
280
     0
102
RTVSPost2010PropOp55
 70
     1
102
RTVSPost2010Prop56
140
1.0
102
RTVSPost2010PropOp56
 70
     1
102
RTVSPost2010Prop57
140
1.0
102
RTVSPost2010PropOp57
 70
     1
102
RTVSPropertyOp0
 70
     1
102
RTVSPropertyOp1
 70
     1
102
RTVSPropertyOp2
 70
     1
102
RTVSPropertyOp3
 70
     1
102
RTVSPropertyOp4
 70
     1
102
RTVSPropertyOp5
 70
     1
102
RTVSPropertyOp6
 70
     1
102
RTVSPropertyOp7
 70
     1
102
RTVSPropertyOp8
 70
     1
102
RTVSPropertyOp9
 70
     1
102
RTVSPropertyOp10
 70
     1
102
RTVSPropertyOp11
 70
     1
102
RTVSPropertyOp12
 70
     1
102
RTVSPropertyOp13
 70
     1
102
RTVSPropertyOp14
 70
     1
102
RTVSPropertyOp15
 70
     1
102
RTVSPropertyOp16
 70
     1
102
RTVSPropertyOp17
 70
     1
102
RTVSPropertyOp18
 70
     1
102
RTVSPropertyOp19
 70
     1
102
RTVSPropertyOp20
 70
     1
102
RTVSPropertyOp21
 70
     1
102
RTVSPropertyOp22
 70
     1
102
RTVSPropertyOp23
 70
     1
102
RTVSPropertyOp24
 70
     1
102
RTVSPropertyOp25
 70
     1
102
RTVSPropertyOp26
 70
     1
102
RTVSPropertyOp27
 70
     1
102
RTVSPropertyOp28
 70
     1
102
RTVSPropertyOp29
 70
     1
102
RTVSPropertyOp30
 70
     1
102
RTVSPropertyOp31
 70
     1
102
RTVSPropertyOp32
 70
     1
102
RTVSPropertyOp33
 70
     1
102
RTVSPropertyOp34
 70
     1
102
RTVSPropertyOp35
 70
     1
102
RTVSPropertyOp36
 70
     1
102
RTVSPropertyOp37
 70
     1
102
RTVSPropertyOp38
 70
     1
102
RTVSPropertyOp39
 70
     1
102
RTVSPropertyOp40
 70
     1
102
RTVSPropertyOp41
 70
     1
102
RTVSPropertyOp42
 70
     1
102
RTVSPropertyOp43
 70
     1
102
RTVSPropertyOp44
 70
     1
102
RTVSPropertyOp45
 70
     1
102
RTVSPropertyOp46
 70
     1
102
RTVSPropertyOp47
 70
     1
102
RTVSPropertyOp48
 70
     1
102
RTVSPropertyOp49
 70
     1
102
RTVSPropertyOp50
 70
     1
102
RTVSPropertyOp51
 70
     0
102
RTVSPropertyOp52
 70
     0
102
RTVSPropertyOp53
 70
     1
102
RTVSPropertyOp54
 70
     1
102
RTVSPropertyOp55
 70
     1
102
RTVSPropertyOp56
 70
     1
102
RTVSPropertyOp57
 70
     1
102
RTVSPropertyOp58
 70
     1
102
RTVSPropertyOp59
 70
     1
102
RTVSPropertyOp60
 70
     1
102
RTVSPropertyOp61
 70
     1
102
RTVSPropertyOp62
 70
     1
  0
ENDSEC
  0
EOF
